top separator

Home

Forum

What's New

Submit a Tab

FAQ

Links

Contact Us

Link to Us

MuSpy.com

MetalTabs.com logo

Bands

0-9

A

B

C

D

E

F

G

H

I

J

K

L

M

N

O

P

Q

R

S

T

U

V

W

X

Y

Z

Search

What

Where
 

Gorerotted - "Dead Drunk" Guitar Tab

Plain Text Version
More Gorerotted Tabs

Hits: 3013
Rated: 5.00 out of 5 (1 vote)
Updated: 2005-09-14 21:48:27

 

By:

Robbie Filth

sendpm.gif

email.gif

Important note
This tab is available online because we obtained explicit permission from Gorerotted or their label.


#----------------------------------PLEASE NOTE---------------------------------#
#This file is the author's own work and represents their interpretation of the #
#song. You may only use this file for private study, scholarship, or research. #
#Unless specified otherwise, this is NOT an official tab from the band members.#
#------------------------------------------------------------------------------#

  Visit MetalTabs.com for more metal tablature
  
Band: Gorerotted
Album: A New Dawn For The Dead
Song: Dead Drunk
Record Label: Metal Blade
Tuning: D G C F A D

------------------
------------------
------------------
---7-8-7---7------
-5-------8---2-5--
-------------0-3--
trem.........pm.

------------------
------------------
------------------
---7-8-7---7---5--
-5-------8---7----
------------------X2
trem..............

------------------
------------------
------------------
------------------
---7-8-7---7---5--
-5-------8---7----X2
trem..............


------------------
------------------
------------------
---7-8-7---7---5--
-5-------8---7----
------------------X2
trem..............

------------------
------------------
------------------
------------------
---7-8-7---7---5--
-5-------8---7----
trem..............

--------------------------
--------------------------
--------------------------
---------5-9-4-7-9-5------
---7-8-7-3-7-2-5-----9-5--
-5------------------------
trem.....pm. . .

--------------------------------------
--------------------------------------
--------------------------------------
--------------------------------------
---------------3/6\3---3/6\3---3-6-3--
-0-1*trill*3-0-1/4\1-0-1/4\1-0-1-4-1--
pm           .       .       . . . .

----------------------------------------------
----------------------------------------------
----------------------------------------------
----------------------------------------------
---------------3/6\3-2h5p2-3h6p3-4h7p4-5h8p5--
-0-1*trill*3-0-1/4\1--------------------------
pm           .

--------------------------------------
--------------------------------------
--------------------------------------
--------------------------------------
---------------3/6\3---3/6\3---3-6-3--
-0-1*trill*3-0-1/4\1-0-1/4\1-0-1-4-1--
pm           .       .       . . . .

----------------------------------------------
----------------------------------------------
----------------------------------------------
----------------------------------------------
---------------3/6\3-2h5p2-3h6p3-4h7p4-5h8p5--
-0-1*trill*3-0-1/4\1--------------------------
pm           .

--------------------------------------
--------------------------------------
--------------------------------------
--------------------------------------
---------------3/6\3---3/6\3---3-6-3--
-0-1*trill*3-0-1/4\1-0-1/4\1-0-1-4-1--
pm           .       .       . . . .

----------------------------------------------
----------------------------------------------
----------------------------------------------
----------------------------------------------
---------------3/6\3-2h5p2-3h6p3-4h7p4-5h8p5--
-0-1*trill*3-0-1/4\1--------------------------
pm           .

--------------------------------------
--------------------------------------
--------------------------------------
--------------------------------------
---------------3/6\3---3/6\3---3-6-3--
-0-1*trill*3-0-1/4\1-0-1/4\1-0-1-4-1--
pm           .       .       . . . .

----------------------------------------------
----------------------------------------------
----------------------------------------------
----------------------------------------------
---------------3/6\3-2h5p2-3h6p3-4h7p4-5h8p5--
-0-1*trill*3-0-1/4\1--------------------------
pm           .

------------------
------------------
------------------
---7-8-7---7------
-5-------8---2-5--
-------------0-3--
trem.........pm.

------------------
------------------
------------------
---7-8-7---7---5--
-5-------8---7----
------------------X2
trem..............

------------------
------------------
------------------
------------------
---7-8-7---7---5--
-5-------8---7----X2
trem..............


------------------
------------------
------------------
---7-8-7---7---5--
-5-------8---7----
------------------X2
trem..............

------------------
------------------
------------------
------------------
---7-8-7---7---5--
-5-------8---7----
trem..............

--------------------------
--------------------------
--------------------------
--------------------------
---7-8-7-2-1-2-5-2-1-2-5--
-5-------2-1-2-5-2-1-2-5--
trem.... pm. .   . . .

----------------------------------
----------------------------------
----------------------------------
----------------------------------
-2-1-2-5-2-1-2-5-2-1-2-5-6-5-2-5--
-2-1-2-5-2-1-2-5-2-1-2-5-6-5-2-5--X8
 pm. .   . . .   . . .       .

----------------------
----------------------
----------------------
----------------------
-1----2----3----4-----
---22---33---44---55--X2
   pm   ..   ..   ..

----------------------
----------------------
----------------------
-1----2----3----4-----
---22---33---44---55--
----------------------X2
   pm   ..   ..   ..

----------------------
----------------------
----------------------
----------------------
-1----2----3----4-----
---22---33---44---55--X2
   pm   ..   ..   ..

----------------------
----------------------
----------------------
-1----2----3----4-----
---22---33---44---55--
----------------------X2
   pm   ..   ..   ..

---------------------------
-----------------------ph--
-----------------------5---
-----5-6---5/6\5---5-6-----
-7-3-3-4-4-3/4\3-3-3-4-----
-5-1-----2-------1---------

-----------------------ph--
-----------------------5---
---------------------------
-2---5-6---5/6\5---5-6-----
-0-3-3-4-4-3/4\3-3-3-4-----
---1-----2-------1---------

---------------------------
-----------------------ph--
-----------------------5---
-----5-6---5/6\5---5-6-----
-7-3-3-4-4-3/4\3-3-3-4-----
-5-1-----2-------1---------

-----------------------ph--
-----------------------5---
---------------------------
-2---5-6---5/6\5---5-6-----
-0-3-3-4-4-3/4\3-3-3-4-----
---1-----2-------1---------

---------------------------
-----------------------ph--
-----------------------5---
-----5-6---5/6\5---5-6-----
-7-3-3-4-4-3/4\3-3-3-4-----
-5-1-----2-------1---------

--------------------------------------------------------------------
--------------------------------------------------------------------
--------------------------------------------------------------------
-5-5-5-------5-5-6-6-6-------5-6-5-5-5-------5-5-6-6-6--------------
-3-3-3-3-3-3-3-3-4-4-4-4-4-4-3-4-3-3-3-3-3-3-3-3-4-4-4-4-4-4-4-4-4--
-------1-1-1-----------2-2-2-----------1-1-1-----------2-2-2-2-2-2--
 pm. . . . . . . . . . . . . . . . . . . . . . . . . . . . . . . .

--------------------------------------------------------------------
--------------------------------------------------------------------
--------------------------------------------------------------------
-------------5-5-6-6-6-------5-6-5-5-5-------5-5-6-6-6--------------
-7-7-7-3-3-3-3-3-4-4-4-4-4-4-3-4-3-3-3-3-3-3-3-3-4-4-4-4-4-4-4-4-4--
-5-5-5-1-1-1-----------2-2-2-----------1-1-1-----------2-2-2-2-2-2--
 pm. . . . . . . . . . . . . . . . . . . . . . . . . . . . . . . .

---------------------------
-----------------------ph--
-----------------------5---
-----5-6---5/6\5---5-6-----
-7-3-3-4-4-3/4\3-3-3-4-----
-5-1-----2-------1---------

-----------------------ph--
-----------------------5---
---------------------------
-2---5-6---5/6\5---5-6-----
-0-3-3-4-4-3/4\3-3-3-4-----
---1-----2-------1---------

--------------------------------------------------------------------
--------------------------------------------------------------------
--------------------------------------------------------------------
-5-5-5-------5-5-6-6-6-------5-6-5-5-5-------5-5-6-6-6--------------
-3-3-3-3-3-3-3-3-4-4-4-4-4-4-3-4-3-3-3-3-3-3-3-3-4-4-4-4-4-4-4-4-4--
-------1-1-1-----------2-2-2-----------1-1-1-----------2-2-2-2-2-2--
 pm. . . . . . . . . . . . . . . . . . . . . . . . . . . . . . . .

------------------------------------------
------------------------------------------
------------------------------------------
-------------5-5-6-6-6-------5/6\5---5-6--
-7-7-7-3-3-3-3-3-4-4-4-4-4-4-3/4\3-3-3-4--
-5-5-5-1-1-1-----------2-2-2-------1------
 pm. . . . . . . . . . . . .

Any corrections mail them to septic_flesh241@hotmail.com

  Visit MetalTabs.com for more metal tablature

bottom separator

Contact Us | Privacy Policy | Disclaimer | Legal Notice
Copyright © 2001-2014 MetalTabs.com. All Rights Reserved.