top separator

Home

Forum

What's New

Submit a Tab

FAQ

Links

Contact Us

Link to Us

MuSpy.com

MetalTabs.com logo

Bands

0-9

A

B

C

D

E

F

G

H

I

J

K

L

M

N

O

P

Q

R

S

T

U

V

W

X

Y

Z

Search

What

Where
 

Gorerotted - "A Very Grave Business" Guitar Tab

Plain Text Version
More Gorerotted Tabs

Hits: 3012
Rated: 4.00 out of 5 (4 votes)
Updated: 2005-09-14 21:37:43

 

By:

Robbie Filth

sendpm.gif

email.gif

Important note
This tab is available online because we obtained explicit permission from Gorerotted or their label.


#----------------------------------PLEASE NOTE---------------------------------#
#This file is the author's own work and represents their interpretation of the #
#song. You may only use this file for private study, scholarship, or research. #
#Unless specified otherwise, this is NOT an official tab from the band members.#
#------------------------------------------------------------------------------#

  Visit MetalTabs.com for more metal tablature
  
Band: Gorerotted
Album: A New Dawn for the Dead
Song: A Very Grave Business
Record Label: Metal Blade
Tuning: D G C F A D

: = 10

----------------------------------
----------------------------------
----------------------------------
----------------------------------
-3-4-5-6-3-4-5-6-3-4-5-6-3-4-5-6--
-1-2-3-4-1-2-3-4-1-2-3-4-1-2-3-4--
 pm. . . . . . . . . . . . . . .

------------------------------
------------------------------
------------------------------
-------7-6-----------6-5------
-------------3-------------2--
-8-5-8-----5---7-4-7-----4----X4
 Trem........................

----------------------------------------------------------------
----------------------------------------------------------------
-------------------------------------------------------------7--
-------------------------------------------------------------6--
-:\7/:\7---7/:\7--9\6/9\6---6/9\6--:\7/:\7---7/:\7--9\6/9\6--5--
-8\5/8\5-0-5/8\5--7\4/7\4-0-4/7\4--8\5/8\5-0-5/8\5--7\4/7\4-----X2
        pm                .

------------------------------
------------------------------
------------------------------
-------7-6-----------6-5------
-------------3-------------2--
-8-5-8-----5---7-4-7-----4----X4
 Trem........................

----------------------------------------------------------------
----------------------------------------------------------------
-------------------------------------------------------------7--
-------------------------------------------------------------6--
-:\7/:\7---7/:\7--9\6/9\6---6/9\6--:\7/:\7---7/:\7--9\6/9\6--5--
-8\5/8\5-0-5/8\5--7\4/7\4-0-4/7\4--8\5/8\5-0-5/8\5--7\4/7\4-----X2
        pm                .

------------------
------------------
------------------
------------------
-:-9-8-7-9-8-7-6--
-8-7-6-5-7-6-5-4--X4

I'm not 100% sure about this bit
-------------------
-------------------
-------------------
-------------------
-7-3-7-3-7-3-7-12--
-------------------X2

---------------------------------------
---------------------------------------
-----------------------9----8---7---6--
--------------------11---10---9---8----
-7-12-7-12-7-12-7-12-------------------
---------------------------------------

-------------------
-------------------
-------------------
-------------------
-7-3-7-3-7-3-7-12--
-------------------X2

---------------------------------------
---------------------------------------
-----------------------9----8---7---6--
--------------------11---10---9---8----
-7-12-7-12-7-12-7-12-------------------
---------------------------------------

-------------------
-------------------
-------------------
-------------------
-7-3-7-3-7-3-7-12--
-------------------X2

---------------------------------------
---------------------------------------
-----------------------9----8---7---6--
--------------------11---10---9---8----
-7-12-7-12-7-12-7-12-------------------
---------------------------------------

-------------------
-------------------
-------------------
-------------------
-7-3-7-3-7-3-7-12--
-------------------X2

-------------------------------
-------------------------------
-------------------------------
----------------------6-5-4-3--
-7-12-7-12-7-12-7-12--4-3-2-1--
-------------------------------

------------------
------------------
------------------
-7-6-5-4-3-4-5-6--
-5-4-3-2-1-2-3-4--
------------------X8

-------------------------------------
-------------------------------------
-------------------------------------
-------------------------------------
---7---7---787-------6---6---676-----
-5---8---5-----X2--4---7---4-----X2--X2
pm   .   .         .   .   .

-------------------------------------
-------------------------------------
-------------------------------------
---7---7---787-------6---6---676-----
-5---8---5-----X2--4---7---4-----X2--
-------------------------------------X2
pm   .   .         .   .   .


------------------
------------------
------------------
-7-6-5-4-3-4-5-ph-
-5-4-3-2-1-2-3-4--
------------------


------------------
------------------
------------------
-7-6-5-4-3-4-5-6--
-5-4-3-2-1-2-3-4--
------------------X8

------------------------------
------------------------------
------------------------------
-------7-6-----------6-5------
-------------3-------------2--
-8-5-8-----5---7-4-7-----4----X4
 Trem........................

----------------------------------------------------------------
----------------------------------------------------------------
-------------------------------------------------------------7--
-------------------------------------------------------------6--
-:\7/:\7---7/:\7--9\6/9\6---6/9\6--:\7/:\7---7/:\7--9\6/9\6--5--
-8\5/8\5-0-5/8\5--7\4/7\4-0-4/7\4--8\5/8\5-0-5/8\5--7\4/7\4-----X2
        pm                .

----------
----------
----------
----------
-7-8-9-:--
-5-6-7-8--X8

--------------------
--------------------
--------------------
--------------------
11---:---9---8---7--
-9---8---7---6---5--

Any corrections mail them to septic_flesh241@hotmail.comn

  Visit MetalTabs.com for more metal tablature

bottom separator

Contact Us | Privacy Policy | Disclaimer | Legal Notice
Copyright © 2001-2014 MetalTabs.com. All Rights Reserved.