top separator

Home

Forum

What's New

Submit a Tab

FAQ

Links

Contact Us

Link to Us

MuSpy.com

MetalTabs.com logo

Bands

0-9

A

B

C

D

E

F

G

H

I

J

K

L

M

N

O

P

Q

R

S

T

U

V

W

X

Y

Z

Search

What

Where
 

Equilibrium - "Met" Guitar Tab

Plain Text Version
More Equilibrium Tabs

Hits: 7967
Rated: 4.00 out of 5 (2 votes)
Updated: 2005-09-14 21:02:13

 

By:

Darkenelf

sendpm.gif

email.gif

Important note
This tab is available online because we obtained explicit permission from Equilibrium or their label.


#----------------------------------PLEASE NOTE---------------------------------#
#This file is the author's own work and represents their interpretation of the #
#song. You may only use this file for private study, scholarship, or research. #
#Unless specified otherwise, this is NOT an official tab from the band members.#
#------------------------------------------------------------------------------#

  Visit MetalTabs.com for more metal tablature
  
Band: Equilibrium
Album: Turis Fratyr
Song: Met

Copyright (c)  (Black Attakk) (2005)
Version 1.0 - (14-07-2005)

Transcribed By: Martijn Wietsma (Asmundr)
Email: asmundr@vikingblood.net


.  - palm mute           /  - slide up to
\  - slide down to       ~  - vibrato
h  - hammer on           b  - Bend
p  - pull off            Suffixes for bend
t  - tap                 f  - full bend    h - half bend
ph - pinched harmonic    q  - quarter bend t - tap bend
*  - see comment         ^  - Hold bend    r release bend
x  - Stuccatto           ~  - vibrato bend
,  - slight palm mute    () - ghost note, sustained note
"  - tremolo note        <> - Trill

Tuning E A D G B E

riff A
|-------------------------------------------------------------------|
|-------------------------------------------------------------------|
|-999------------777------------------------------------------------|(4x)
|-777--10-10-10--555--777-------------------------------------------|
|-------8--8--8-------555-------------------------------------------|
|-------------------------------------------------------------------|

Repeat riff A 1x (0:25)
Repeat riff A 1x (0:31)
Repeat riff A 4x (0:45)
Repeat riff A 1x (0:59)
Repeat riff A 1x (1:05)
Repeat riff A 4x (1:19)

riff B (1:30)
|-------------------------------------------------------------------|
|-------------------------------------------------------------------|
|-9-9-9-(9)-----------------7-7-7-(7)-------------------------------|(4x)
|-7-7-7-(7)--10-10-10-(10)--5-5-5-(5)--7-7-7-(7)--------------------|
|-------------8--8--8---8--------------5-5-5-(5)--------------------|
|-------------------------------------------------------------------|
  x x         x  x          x x        x x

riff C (2:00)
|-------------------------------------------------------------------|
|-------------------------------------------------------------------|
|-9-99-----------7-77-----------------------------------------------|(2x)
|-7-77--10-1010--5-55--7-77-----------------------------------------|
|--------8--8-8--------5-55-----------------------------------------|
|-------------------------------------------------------------------|

riff D (2:08)
|-------------------------------------------------------------------|
|-------------------------------------------------------------------|
|-9999----------7777------------------------------------------------|(4x)
|-7777-10101010-5555-7777-------------------------------------------|
|-------8-8-8-8------5555-------------------------------------------|
|-------------------------------------------------------------------|

riff E (solo) (2:15)
|-------------------------------------------------------------------|
|-------------------------------------------------------------------|
|------------------7------------------------------------------------|(2x)
|-/7--7-9-10--9-10----10-9-7~---------------------------------------|
|-------------------------------------------------------------------|
|-------------------------------------------------------------------|

riff F (ending)
|-------------------------------------------------------------------|
|-------------------------------------------------------------------|
|-9--9--9---99--99--------------------------------------------------|(1x)
|-7--7--7---77--77--------------------------------------------------|
|-------------------------------------------------------------------|
|-------------------------------------------------------------------|

END

  Visit MetalTabs.com for more metal tablature

bottom separator

Contact Us | Privacy Policy | Disclaimer | Legal Notice
Copyright © 2001-2014 MetalTabs.com. All Rights Reserved.