top separator

Home

Forum

What's New

Submit a Tab

FAQ

Links

Contact Us

Link to Us

MuSpy.com

MetalTabs.com logo

Bands

0-9

A

B

C

D

E

F

G

H

I

J

K

L

M

N

O

P

Q

R

S

T

U

V

W

X

Y

Z

Search

What

Where
 

Manegarm - "Pagan War" Guitar Tab

Plain Text Version
More Manegarm Tabs

Hits: 3433
Rated: 4.00 out of 5 (1 vote)
Updated: 2005-09-14 21:00:43

 

By:

Darkenelf

sendpm.gif

email.gif

Important note
This tab is available online because we obtained explicit permission from Manegarm or their label.


#----------------------------------PLEASE NOTE---------------------------------#
#This file is the author's own work and represents their interpretation of the #
#song. You may only use this file for private study, scholarship, or research. #
#Unless specified otherwise, this is NOT an official tab from the band members.#
#------------------------------------------------------------------------------#

  Visit MetalTabs.com for more metal tablature
  
Band: Manegarm
Album: Dödsfärd
Song: Pagan War
Tabbed by: Martijn Wietsma / Asmundr
Email: asmundr@vikingblood.net
Version: 0.1 (acoustic solo is missing)
Tab Date: 06-08-2005

E | A | D | G | B | E

A
|-------------------------------------------------------------|
|-------------------------------------------------------------|
|-------------------------------------------------------------|
|-7--10-8-10---8--10-8-10---7--10-8-10-11-10-11-13-11-10-11-8-|
|-5---8-6--8---6---8-6--8---5---8-6--8--9--8--9-11--9--8--9-6-|
|-------------------------------------------------------------|

B
|-------------------------------------------------------------|
|-------------------------------------------------------------|
|-------------------------------------------------------------|
|-7--10-8-10---8--10-8-10---7--10-8-10---11-10-8-10-----------|
|-5---8-6--8---6---8-6--8---5---8-6--8----9--8-6--8-----------|
|-------------------------------------------------------------|

C (0:14)
|---------------------------------------------------|
|---------------------------------------------------|
|---------------------------------------------------|(1x)
|-7-777-777---------8-888-888-----------------------|
|-5-555-555-8-6-8---6-666-666-8-6-8-----------------|
|---------------------------------------------------|

D
|---------------------------------------------------|
|---------------------------------------------------|
|---------------------------------------------------|(1x)
|-7-777-777-------------6---------------------------|
|-5-555-555-8-6-8-9-8-9---9-8-9-6-------------------|
|---------------------------------------------------|

C
|---------------------------------------------------|
|---------------------------------------------------|
|---------------------------------------------------|(1x)
|-7-777-777---------8-888-888-----------------------|
|-5-555-555-8-6-8---6-666-666-8-6-8-----------------|
|---------------------------------------------------|

E (0:21)
|---------------------------------------------------|
|---------------------------------------------------|
|---------------------------------------------------|(1x)
|-7-777-777-----------------------------------------|
|-5-555-555-8-6-8---9-8-6-8-------------------------|
|---------------------------------------------------|

F (0:28)
|---------------------------------------------------|
|---------------------------------------------------|
|---------------------------------------------------|(1x)
|-7777777-----8888888-----7777777-------6-----------|
|-5555555-868-6666666-868-5555555-868989-9896-------|
|---------------------------------------------------|

G
|---------------------------------------------------|
|---------------------------------------------------|
|---------------------------------------------------|(1x)
|-7777777-----8888888-----7777777-------------------|
|-5555555-868-6666666-868-5555555-868-9868----------|
|---------------------------------------------------|

G1 (0:41)
|---------------------------------------------------|
|---------------------------------------------------|
|----------1010101010101010-------------------------|(1x)
|-77777777--8-8-8-8-8-8-8-8-66666666-88888888-------|
|-55555555------------------44444444-66666666-------|
|---------------------------------------------------|

H
|---------------------------------------------------|
|---------------------------------------------------|
|----------1010101010101010-------------------------|(1x)
|-77777777--8-8-8-8-8-8-8-8-66666666-55555555-------|
|-55555555------------------44444444-33333333-------|
|---------------------------------------------------|

I (0:52)
|---------------------------------------------------|
|---------------------------------------------------|
|---------------------------------------------------|(1x)
|---------------------------------------------------|
|-55555555-77888888-555555555555-66-3-3-------------|
|-33333333-55666666-333333333333-44-1-1-------------|

J (0:58)
|---------------------------------------------------|
|---------------------------------------------------|
|---------------------------------------------------|(1x)
|-------------------77777777-8--5--5--5-------------|
|-55555555-77888888-55555555-6--3--3--3-------------|
|-33333333-55666666---------------------------------|

Repeat riff F 1x (1:03)
Repeat riff G 1x (1:09)
Repeat riff G1 1x
Repeat riff H 1x (1:23)
Repeat riff I 1x (1:30)
Repeat riff J 1x

K (acoustic part) (missing in this version)

A (short Muted notes)(2:25)
|-------------------------------------------------------------|
|-------------------------------------------------------------|
|-------------------------------------------------------------|(1x)
|-7--10-8-10---8--10-8-10---7--10-8-10-11-10-11-13-11-10-11-8-|
|-5---8-6--8---6---8-6--8---5---8-6--8--9--8--9-11--9--8--9-6-|
|-------------------------------------------------------------|

B (short Muted notes)
|-------------------------------------------------------------|
|-------------------------------------------------------------|
|-------------------------------------------------------------|(1x)
|-7--10-8-10---8--10-8-10---7--10-8-10---11-10-8-10-----------|
|-5---8-6--8---6---8-6--8---5---8-6--8----9--8-6--8-----------|
|-------------------------------------------------------------|

Repeat riff G1 1x (2:34)
Repeat riff H 1x

L (2:47)
|---------------------------------------------------|
|---------------------------------------------------|
|---------------------------------------------------|(3x)
|-7-777-777-7-777-7-8-8-----------------------------|
|-5-555-555-5-555-5-6-6--8-888-888-8-888-8-10-10----|
|------------------------6-666-666-6-666-6--8--8----|

|---------------------------------------------------|
|---------------------------------------------------|
|---------------------------------------------------|(1x)
|-7-777-777-7-777-7-8-8-----------------------------|
|-5-555-555-5-555-5-6-6--8-888-888-8-888-8-10-8-----|
|------------------------6-666-666-6-666-6--8-6-----|

M (3:08)
|---------------------------------------------------|
|---------------------------------------------------|
|---------------------------------------------------|(1x)
|---------------------------------------------------|
|-55-55-55-55-77-88-88-88-77-77-77-77-55-55-55-55---|
|-33-33-33-33-55-66-66-66-55-55-55-55-33-33-33-33---|
p.m..............................................

|---------------------------------------------------|
|---------------------------------------------------|
|---------------------------------------------------|(1x)
|--------------------------------------777-777-77---|
|-55-55-55-55-77-88-88-88-77-77-77-77--555-555-55---|
|-33-33-33-33-55-66-66-66-55-55-55-55---------------|
p.m..................................

Repeat riff I 1x (3:20)
Repeat riff J 1x
Repeat riff I 1x

N
|---------------------------------------------------|
|---------------------------------------------------|
|---------------------------------------------------|(1x)
|-------------------77777777-8--5--5--7~------------|
|-55555555-77888888-55555555-6--3--3--5-------------|
|-33333333-55666666---------------------------------|

(End of Song)

  Visit MetalTabs.com for more metal tablature

bottom separator

Contact Us | Privacy Policy | Disclaimer | Legal Notice
Copyright © 2001-2014 MetalTabs.com. All Rights Reserved.