top separator

Home

Forum

What's New

Submit a Tab

FAQ

Links

Contact Us

Link to Us

MuSpy.com

MetalTabs.com logo

Bands

0-9

A

B

C

D

E

F

G

H

I

J

K

L

M

N

O

P

Q

R

S

T

U

V

W

X

Y

Z

Search

What

Where
 

Savatage - "Hounds" Bass Tab

Plain Text Version
More Savatage Tabs

Hits: 2715
Updated: 2005-09-14 20:46:44

 

By:

sendpm.gif

email.gif

Important note
We did our best to reach Savatage and ask for their permission to publish this tab. Unfortunately they did not respond to our requests or we could not find a way to contact them. This tab is available online until Savatage tells us to take it down.


#----------------------------------PLEASE NOTE---------------------------------#
#This file is the author's own work and represents their interpretation of the #
#song. You may only use this file for private study, scholarship, or research. #
#Unless specified otherwise, this is NOT an official tab from the band members.#
#------------------------------------------------------------------------------#

  Visit MetalTabs.com for more metal tablature
  
Band: Savatage
Album: Gutter Ballet (1989)
Song: Hounds
Written by Criss Oliva (RIP), Jon Oliva, Paul O'Neill

Version 1.0: 27 August 2005
Copyright Labe: Atlantic Records (1989)

Transcripted by Elvalord
E-mail: g6nickchad@hotmai.com
(This tab was made by me using the Guitar Pro)


Bass - Johnny Lee Middleton
Standard Tuning

Intro (Guitar only)
     B5(b6)                                Emadd2
G||------------------|------------------|------------------|------------------|
D||------------------|------------------|------------------|------------------|
A||------------------|------------------|------------------|------------------|
E||------------------|------------------|------------------|------------------|


  B5(b6)                                Emadd2
------------------|------------------|------------------|------------------|
------------------|------------------|------------------|------------------|
------------------|------------------|------------------|------------------|
------------------|------------------|------------------|------------------|


  B5(b6)                                Emadd2
------------------|------------------|------------------|------------------|
------------------|------------------|------------------|------------------|
------------------|------------------|------------------|------------------|
------------------|------------------|------------------|------------------|


  B5(b6)                                Emadd2
------------------|------------------|------------------|------------------|
------------------|------------------|------------------|------------------|
------------------|------------------|------------------|------------------|
------------------|------------------|------------------|------------------|

Pre-Chorus                                             Chorus
  F#5                        G5       A5           B5    B5          D5   E5
--------------------------|---------------------------|----------------------|
--------------------------|---------------------------|--------------0----2--|
--------------------------|-----------0-0-0--0--0--2--|--2----2--------------|
--2--2--2--2--2--2--2--2--|--3--3--3------------------|----------------------|


            N.C.             B5          D5   E5              N.C.
--------------------------|----------------------|--------------------------|
----2--2----5-4-5---------|--------------0----2--|----2--2----4-3-4---------|
-------------------5-4-5--|--2----2--------------|-------------------5-4-5--|
--------------------------|----------------------|--------------------------|


  B5          A5   E5              N.C.             B5          D5   E5
----------------------|--------------------------|----------------------|
----------------------|----2--2----5-4-5---------|--------------0----2--|
--2----2------0-------|-------------------5-4-5--|--2----2--------------|
-------------------0--|--------------------------|----------------------|

                           Bridge 1 & Verse
            N.C.             B5
--------------------------|---------------------------|
----2--2----4-2-4---------|---------------------------|
-------------------5-4-5--|--2----2--2-2-2--2--2-2-2--|
--------------------------|---------------------------|


             A5B5      A5G5    E5
----------------------------|----------------------|-------------------------|
----------------------------|----------------------|-------------------------|
----2-2-2--2-0-2--2--2h0----|----------------------|-------------------------|
-------------------------3--|--0--------0--0----0--|----0--0--0--0--0--0--0--|


  B5                                     A5B5      A5G5    E5
---------------------------|----------------------------|----------------------|
---------------------------|----------------------------|----------------------|
--2----2--2-2-2--2--2-2-2--|----2-2-2--2-0-2--2--2h0----|----------------------|
---------------------------|-------------------------3--|--0--------0--0----0--|


                            B5
-------------------------|---------------------------|
-------------------------|---------------------------|
-------------------------|--2----2--2-2-2--2--2-2-2--|
----0--0--0--0--0--0--0--|---------------------------|


             A5B5      A5G5    E5
----------------------------|----------------------|-------------------------|
----------------------------|----------------------|-------------------------|
----2-2-2--2-0-2--2--2h0----|----------------------|-------------------------|
-------------------------3--|--0--------0--0----0--|----0--0--0--0--0--0--0--|

Pre-Chorus                                             Chorus
  F#5                        G5       A5           B5    B5          D5   E5
--------------------------|---------------------------|----------------------|
--------------------------|---------------------------|--------------0----2--|
--------------------------|-----------0-0-0--0--0--2--|--2----2--------------|
--2--2--2--2--2--2--2--2--|--3--3--3------------------|----------------------|


            N.C.             B5          D5   E5              N.C.
--------------------------|----------------------|--------------------------|
----2--2----5-4-5---------|--------------0----2--|----2--2----4-3-4---------|
-------------------5-4-5--|--2----2--------------|-------------------5-4-5--|
--------------------------|----------------------|--------------------------|


  B5          A5   E5              N.C.             B5          D5   E5
----------------------|--------------------------|----------------------|
----------------------|----2--2----5-4-5---------|--------------0----2--|
--2----2------0-------|-------------------5-4-5--|--2----2--------------|
-------------------0--|--------------------------|----------------------|

                           Interlude 1
            N.C.             B5(b6)
--------------------------|-------------------|------------------|
----2--2----4-2-4---------|-------------------|------------------|
-------------------5-4-5--|--2----------------|------------------|
--------------------------|-------------------|------------------|


  Emadd2                                B5(b6)
------------------|------------------|-------------------|------------------|
------------------|------------------|-------------------|------------------|
------------------|------------------|--2----------------|------------------|
------------------|------------------|-------------------|------------------|

                                       Pre-Solo
  Emadd2                                F#5
------------------|------------------|--------------------------|
------------------|------------------|--------------------------|
------------------|------------------|--------------------------|
------------------|------------------|--2--2--2--2--2--2--2--2--|


  D5            C5               B5
------------------------------|--------------------------------|
--0--0-0-0--0-0---------------|--------------------------------|
----------------3--3-3-3--3-3-|--2-2-2-2-2--2-2-2-2-2-2-2--2-2-|
------------------------------|--------------------------------|

                                  Guitar Solo 1
  B5                               N.C.
--------------------------------|----------------4-------------|
--------------------------------|--------4---4h5---5h2-4h2---2-|
--2-2-2-2-2--2-2-2-2-2-2-2--2-2-|--------------------------5---|
--------------------------------|--0h2-------------------------|


                     D5 E5    N.C.
----------------4----------|----------------4-------------|
--------4---4h5---5-----2--|--------4---4h5---5h2-4h2---2-|
---------------------5-----|--------------------------5---|
--0h2----------------------|--0h2-------------------------|


                     D5 E5    N.C.
----------------4----------|----------------4-------------|
--------4---4h5---5-----2--|--------4---4h5---5h2-4h2---2-|
---------------------5-----|--------------------------5---|
--0h2----------------------|--0h2-------------------------|


                     D5 E5    N.C.
----------------4----------|----------------4-------------|
--------4---4h5---5-----2--|--------4---4h5---5h2-4h2---2-|
---------------------5-----|--------------------------5---|
--0h2----------------------|--0h2-------------------------|


                     D5 E5    B5                   D5
----------------4----------|--------------------------|
--------4---4h5---5-----2--|--------------------------|
---------------------5-----|--2--2--2--2--2--2--2/-5--|
--0h2----------------------|--------------------------|


  A5                B5 D5    B5                   D5
--------------------------|--------------------------|
--------------------------|--------------------------|
--0--0--0--0--0--0--2/-5--|--2--2--2--2--2--2--2/-5--|
--------------------------|--------------------------|


  A5                B5 D5    B5                   D5
--------------------------|--------------------------|
--------------------------|--------------------------|
--0--0--0--0--0--0--2/-5--|--2--2--2--2--2--2--2/-5--|
--------------------------|--------------------------|


  A5                         N.C.
--------------------------|----------------4-------------|
--------------------------|--------4---4h5---5h2-4h2---2-|
--0--0--0--0--0--0--0--0--|--------------------------5---|
--------------------------|--0h2-------------------------|


                     D5 E5    N.C.
----------------4----------|----------------4-------------|
--------4---4h5---5-----2--|--------4---4h5---5h2-4h2---2-|
---------------------5-----|--------------------------5---|
--0h2----------------------|--0h2-------------------------|

                            Interlude 2
                     D5 E5    B5
----------------4----------|-------------------|------------------|
--------4---4h5---5-----2--|-------------------|------------------|
---------------------5-----|--2----------------|------------------|
--0h2----------------------|-------------------|------------------|


  B5(b6)Cmaj7                           B5(b6)Cmaj7
------------------|------------------|------------------|------------------|
------------------|------------------|------------------|------------------|
------------------|------------------|------------------|------------------|
------------------|------------------|------------------|------------------|


  B5(b6)                                F#5
------------------|------------------|-------------------|------------------|
------------------|------------------|-------------------|------------------|
------------------|------------------|-------------------|------------------|
------------------|------------------|--2----------------|------------------|


  B5(b6)                                F#5                               E5
------------------|------------------|-------------------|--------------------|
------------------|------------------|-------------------|--------------------|
------------------|------------------|-------------------|--------------------|
------------------|------------------|--2----------------|----------------0-0-|


  E5                                        E5
--------------------|--------------------|--------------------|
--------------------|--------------------|--------------------|
--------------------|--------------------|--------------------|
--0----0------------|----------------0-0-|--0----0------------|


                       E5
--------------------|--------------------|--------------------|
--------------------|--------------------|--------------------|
--------------------|--------------------|--------------------|
----------------0-0-|--0----0------------|----------------0-0-|


  E5                                        E5
--------------------|--------------------|--------------------|
--------------------|--------------------|--------------------|
--------------------|--------------------|--------------------|
--0----0------------|----------------0-0-|--0----0------------|


                       E5                           G5   A5
--------------------|--------------------|--------------------|
--------------------|--------------------|--------------------|
--------------------|--------------------|---------------0----|
----------------0-0-|--0----0------------|----------3---------|

Chorus
  B5          D5   E5              N.C.             B5          D5   E5
----------------------|--------------------------|----------------------|
--------------0----2--|----2--2----5-4-5---------|--------------0----2--|
--2----2--------------|-------------------5-4-5--|--2----2--------------|
----------------------|--------------------------|----------------------|


            N.C.             B5          A5   E5              N.C.
--------------------------|----------------------|--------------------------|
----2--2----4-3-4---------|----------------------|----2--2----5-4-5---------|
-------------------5-4-5--|--2----2------0-------|-------------------5-4-5--|
--------------------------|-------------------0--|--------------------------|

                                                  Pre-Solo
  B5          D5   E5              N.C.             B5
----------------------|--------------------------|--------------------|
--------------0----2--|----2--2----4-2-4---------|--------------------|
--2----2--------------|-------------------5-4-5--|--2------2----------|
----------------------|--------------------------|--------------------|


  B5                   D5                  E5
--------------------|-------------------|-------------------|
--------------------|--0----------------|--2----------------|
--2------2----------|-------------------|-------------------|
--------------------|-------------------|-------------------|

Guitar Solo 2
  B5
--------------------------|--------------------------|
--------------------------|--------------------------|
--2--2--2--2--2--2--2--2--|--2--2--2--2--2--2--2--2--|
--------------------------|--------------------------|


  D5                         E5             D5    C#5
--------------------------|--------------------------|
--0--0--0--0--0--0--0--0--|--2--2--2--2--2--0--0-----|
--------------------------|-----------------------4--|
--------------------------|--------------------------|


  B5
--------------------------|--------------------------|
--------------------------|--------------------------|
--2--2--2--2--2--2--2--2--|--2--2--2--2--2--2--2--2--|
--------------------------|--------------------------|


  D5                         A5             G5
--------------------------|--------------------------|
--0--0--0--0--0--0--0--0--|--------------------------|
--------------------------|--0--0--0--0--0-----------|
--------------------------|-----------------3--3--3--|


  B5
--------------------------|--------------------------|
--------------------------|--------------------------|
--2--2--2--2--2--2--2--2--|--2--2--2--2--2--2--2--2--|
--------------------------|--------------------------|


  D5                         E5             D5    C#5
--------------------------|--------------------------|
--0--0--0--0--0--0--0--0--|--2--2--2--2--2--0--0-----|
--------------------------|-----------------------4--|
--------------------------|--------------------------|


  B5
--------------------------|--------------------------|
--------------------------|--------------------------|
--2--2--2--2--2--2--2--2--|--2--2--2--2--2--2--2--2--|
--------------------------|--------------------------|


  D5                         A5             G5
--------------------------|--------------------------|
--0--0--0--0--0--0--0--0--|--------------------------|
--------------------------|--0--0--0--0--0-----------|
--------------------------|-----------------3--3--3--|


  B5
--------------------------|--------------------------|
--------------------------|--------------------------|
--2--2--2--2--2--2--2--2--|--2--2--2--2--2--2--2--2--|
--------------------------|--------------------------|


  D5                         E5             D5    C#5
--------------------------|--------------------------|
--0--0--0--0--0--0--0--0--|--2--2--2--2--2--0--0-----|
--------------------------|-----------------------4--|
--------------------------|--------------------------|


  B5
--------------------------|--------------------------|
--------------------------|--------------------------|
--2--2--2--2--2--2--2--2--|--2--2--2--2--2--2--2--2--|
--------------------------|--------------------------|


  D5                         A5             G5
--------------------------|--------------------------|
--0--0--0--0--0--0--0--0--|--------------------------|
--------------------------|--0--0--0--0--0-----------|
--------------------------|-----------------3--3--3--|


  B5
--------------------------|--------------------------|
--------------------------|--------------------------|
--2--2--2--2--2--2--2--2--|--2--2--2--2--2--2--2--2--|
--------------------------|--------------------------|


  D5                         E5             D5    C#5
--------------------------|--------------------------|
--0--0--0--0--0--0--0--0--|--2--2--2--2--2--0--0-----|
--------------------------|-----------------------4--|
--------------------------|--------------------------|


  B5
--------------------------|--------------------------|
--------------------------|--------------------------|
--2--2--2--2--2--2--2--2--|--2--2--2--2--2--2--2--2--|
--------------------------|--------------------------|


  D5                         A5             G5
--------------------------|--------------------------|
--0--0--0--0--0--0--0--0--|--------------------------|
--------------------------|--0--0--0--0--0-----------|
--------------------------|-----------------3--3--3--|

                           Outro (Guitar only)
  B5     A5     G5     F#5                      B5(b6)
--------------------------|------------------|------------------|
--------------------------|------------------|------------------|
--2------0----------------|------------------|------------------|
----------------3------2--|------------------|------------------|


                     F#7add4                               B5(b6)
------------------|------------------|------------------|------------------|
------------------|------------------|------------------|------------------|
------------------|------------------|------------------|------------------|
------------------|------------------|------------------|------------------|


                     F#7add4                               B5(b6)
------------------|------------------|------------------|------------------|
------------------|------------------|------------------|------------------|
------------------|------------------|------------------|------------------|
------------------|------------------|------------------|------------------|


                     F#7add4
------------------|------------------|------------------||
------------------|------------------|------------------||
------------------|------------------|------------------||
------------------|------------------|------------------||

  Visit MetalTabs.com for more metal tablature

bottom separator

Contact Us | Privacy Policy | Disclaimer | Legal Notice
Copyright © 2001-2014 MetalTabs.com. All Rights Reserved.