top separator

Home

Forum

What's New

Submit a Tab

FAQ

Links

Contact Us

Link to Us

MetalTabs.com logo

Bands

0-9

A

B

C

D

E

F

G

H

I

J

K

L

M

N

O

P

Q

R

S

T

U

V

W

X

Y

Z

Search

What

Where
 

Burzum - "Ea, Lord of The Depths" Guitar Tab

Plain Text Version
More Burzum Tabs

Hits: 11967
Rated: 4.30 out of 5 (10 votes)
Updated: 2005-09-14 20:05:09

 

By:

Marduk

sendpm.gif

email.gif

Important note
This tab is available online because we obtained explicit permission from Burzum or their label.


#----------------------------------PLEASE NOTE---------------------------------#
#This file is the author's own work and represents their interpretation of the #
#song. You may only use this file for private study, scholarship, or research. #
#Unless specified otherwise, this is NOT an official tab from the band members.#
#------------------------------------------------------------------------------#

  Visit MetalTabs.com for more metal tablature
  
EA, LORD OF THE DEPTHS
                              As recorded by Burzum
                          (From the 1992 Album BURZUM)

Well, this should be it... Pretty easy huh?
Hm, I didn't add the bass, maybe later, but don't count on it. =P
And the bass plays mainly (if not always) the root notes of the lead,
so it should be easy to figure out on yourself.
Well, have fun,

Words and Music by Varg Vikernes
Arranged by Varg Vikernes?
Transcribed by Marduk

Standard tuning E A D G B E

       Q=130
 4/4
               Gtr I
       Wx4     S S S S S S S S S S S S S S S S
|----------||----------------------------------|
|----------||o---------------------------------|
|----------||--5-5-5-5-5-5-5-5-5-5-5-5-5-5-5-5-|
|----------||--5-5-5-5-5-5-5-5-5-5-5-5-5-5-5-5-|
|----------||o-3-3-3-3-3-3-3-3-3-3-3-3-3-3-3-3-|
|----------||----------------------------------|
|
|              Gtr II
| Wx4          S S S S S S S S S S S S S S S S
|----------||----------------------------------|
|----------||o-------------------------4-4-4-4-|
|----------||------------------5-5-5-5---------|
|----------||----------5-5-5-5-----------------|
|----------||o-3-3-3-3-------------------------|
|----------||----------------------------------|


  S S S S S S S S S S S S S S S S
|----------------------------------|
|----------------------------------|
|-4-4-4-4-4-4-4-4-4-4-4-4-4-4-4-4--|
|-4-4-4-4-4-4-4-4-4-4-4-4-4-4-4-4--|
|-2-2-2-2-2-2-2-2-2-2-2-2-2-2-2-2--|
|----------------------------------|
|
| S S S S S S S S S S S S S S S S
|----------------------------------|
|-3-3-3-3--------------------------|
|---------4-4-4-4------------------|
|-----------------4-4-4-4----------|
|-------------------------2-2-2-2--|
|----------------------------------|


  S S S S S S S S S S S S S S S S   S S S S S S S S S S S S S S S S  6x
|---------------------------------|----------------------------------||
|---------------------------------|---------------------------------o||
|---------------------------------|----------------------------------||
|-6-6-6-6-6-6-6-6-6-6-6-6-6-6-6-6-|-5-5-5-5-5-5-5-5-5-5-5-5-5-5-5-5--||
|-6-6-6-6-6-6-6-6-6-6-6-6-6-6-6-6-|-5-5-5-5-5-5-5-5-5-5-5-5-5-5-5-5-o||
|-4-4-4-4-4-4-4-4-4-4-4-4-4-4-4-4-|-3-3-3-3-3-3-3-3-3-3-3-3-3-3-3-3--||
|
| S S S S S S S S S S S S S S S S   S S S S S S S S S S S S S S S S  6x
|---------------------------------|----------------------------------||
|---------------------------------|---------------------------------o||
|---------------------------------|----------------------------------||
|-----------------1-1-1-1---------|----------------------------------||
|---------3-3-3-3---------3-3-----|---------5-5-5-5-6-6-6-6-5-5-5-5-o||
|-4-4-4-4---------------------4-4-|-3-3-3-3--------------------------||


    S S S S S S S S S S S S S S S S   S S S S S S S S  S  S  S  S S S S S   4x
||----------------------------------|---------------------------------------||
||o---------------------------------|--------------------------------------o||
||--1-1-1-1-1-1-1-1-----------------|------------------5--5--5--5-3-3-3-3---||
||------------------3-3-3-3---------|-5-5-5-5-5-5-5-5-----------------------||
||o-------------------------5-5-5-5-|--------------------------------------o||
||----------------------------------|---------------------------------------||
|
|   S S S S S S S S S S S S S S S S   S S S S S S S S  S  S  S  S S S S S   4x
||----------------------------------|---------------------------------------||
||o---------------------------------|--------------------------------------o||
||----------------------------------|---------------------------------------||
||--3-3-3-3-3-3-3-3-----------------|---------------------------------------||
||o-----------------5-5-5-5---------|-----------------10-10-10-10-8-8-8-8--o||
||--------------------------7-7-7-7-|-8-8-8-8-8-8-8-8-----------------------||


    S S S S S S S S  S  S  S  S  S  S  S  S   S S S S S S S S S S S S S S S S
||------------------------------------------|----------------------------------|
||o-----------------------------------------|----------------------------------|
||------------------------------------------|----------------------------------|
||--5-5-5-5-5-5-5-5--5--5--5--5--5--5--5--5-|----------------------------------|
||o-3-3-3-3-3-3-3-3--3--3--3--3--3--3--3--3-|-6-6-6-6-6-6-6-6-6-6-6-6-6-6-6-6--|
||------------------------------------------|-4-4-4-4-4-4-4-4-4-4-4-4-4-4-4-4--|
|
|   S S S S S S S S  S  S  S  S  S  S  S  S   S S S S S S S S S S S S S S S S
||------------------------------------------|----------------------------------|
||o-----------------------------------------|----------------------------------|
||------------------------------------------|----------------------------------|
||------------------------------------------|----------------------------------|
||o-----------------10-10-10-10-11-11-11-11-|-----------------6-6-6-6-5-5-5-5--|
||--8-8-8-8-8-8-8-8-------------------------|-4-4-4-4-4-4-4-4------------------|


  S S S S S S S S S S S S S S S S   S S S S S S S S S S S S S S S S 10x
|---------------------------------|----------------------------------||
|---------------------------------|---------------------------------o||
|---------------------------------|----------------------------------||
|-5-5-5-5-5-5-5-5-5-5-5-5-5-5-5-5-|-6-6-6-6-6-6-6-6-6-6-6-6-6-6-6-6--||
|-3-3-3-3-3-3-3-3-3-3-3-3-3-3-3-3-|-4-4-4-4-4-4-4-4-4-4-4-4-4-4-4-4-o||
|---------------------------------|----------------------------------||
|
| S S S S S S S S S S S S S S S S   S S S S S S S S S S S S S S S S 10x
|---------------------------------|----------------------------------||
|---------------------------------|---------------------------------o||
|---------------------------------|-----------------2-2-2-2-1-1-1-1--||
|-----------------5-5-5-5-6-6-6-6-|----------------------------------||
|-3-3-3-3-3-3-3-3-----------------|-4-4-4-4-4-4-4-4-----------------o||
|---------------------------------|----------------------------------||


    S S S S S S S S S S S S  S  S  S  S
||--------------------------------------|
||o-------------------------------------|
||--------------------------------------|
||--6-6-6-6-6-6-6-6---------------------|
||o-----------------8-8-8-8-------------|
||--------------------------10-10-10-10-|
|
|   S S S S S S S S S S S S  S  S  S  S
||--------------------------------------|
||o-------------------------------------|
||--------------------------------------|
||--3-3-3-3-3-3-3-3---------------------|
||o-----------------5-5-5-5-------------|
||---------------------------7--7--7--7-|


   S  S  S  S  S  S  S  S  S  S  S  S S S S S   4x
|-----------------------------------------------||
|----------------------------------------------o||
|-----------------------------------------------||
|-------------------------10-10-10-10-8-8-8-8---||
|-10-10-10-10-10-10-10-10----------------------o||
|-----------------------------------------------||
|
|  S  S  S  S  S  S  S  S  S  S  S  S S S S S   4x
|-----------------------------------------------||
|----------------------------------------------o||
|-----------------------------------------------||
|-----------------------------------------------||
|-------------------------10-10-10-10-8-8-8-8--o||
|--8--8--8--8--8--8--8--8-----------------------||


     S  S  S  S  S  S  S  S  S  S  S  S  S  S  S  S
||--------------------------------------------------|
||o-------------------------------------------------|
||--------------------------------------------------|
||--------------------------------------------------|
||o-10-10-10-10-10-10-10-10-10-10-10-10-10-10-10-10-|
||---8--8--8--8--8--8--8--8--8--8--8--8--8--8--8--8-|
|
|    S  S  S  S  S  S  S  S  S  S  S  S  S  S  S  S
||--------------------------------------------------|
||o-------------------------------------------------|
||--------------------------------------------------|
||--------------------------------------------------|
||o-------------------------10-10-10-10-11-11-11-11-|
||---8--8--8--8--8--8--8--8-------------------------|


  S S S S S S S S S S S S S S S S
|----------------------------------|
|----------------------------------|
|----------------------------------|
|----------------------------------|
|-6-6-6-6-6-6-6-6-6-6-6-6-6-6-6-6--|
|-4-4-4-4-4-4-4-4-4-4-4-4-4-4-4-4--|
|
| S S S S S S S S S S S S S S S S
|----------------------------------|
|----------------------------------|
|----------------------------------|
|----------------------------------|
|-----------------6-6-6-6-5-5-5-5--|
|-4-4-4-4-4-4-4-4------------------|


  S S S S S S S S S S S S S S S S   S S S S S S S S S S S S S S S S 10x
|---------------------------------|----------------------------------||
|---------------------------------|---------------------------------o||
|---------------------------------|----------------------------------||
|-5-5-5-5-5-5-5-5-5-5-5-5-5-5-5-5-|-6-6-6-6-6-6-6-6-6-6-6-6-6-6-6-6--||
|-3-3-3-3-3-3-3-3-3-3-3-3-3-3-3-3-|-4-4-4-4-4-4-4-4-4-4-4-4-4-4-4-4-o||
|---------------------------------|----------------------------------||
|
| S S S S S S S S S S S S S S S S   S S S S S S S S S S S S S S S S 10x
|---------------------------------|----------------------------------||
|---------------------------------|---------------------------------o||
|---------------------------------|-----------------2-2-2-2-1-1-1-1--||
|-----------------5-5-5-5-6-6-6-6-|----------------------------------||
|-3-3-3-3-3-3-3-3-----------------|-4-4-4-4-4-4-4-4-----------------o||
|---------------------------------|----------------------------------||


    S S S S S S S S S S S S  S  S  S  S
||--------------------------------------|
||o-------------------------------------|
||--------------------------------------|
||--6-6-6-6-6-6-6-6---------------------|
||o-----------------8-8-8-8-------------|
||--------------------------10-10-10-10-|
|
|   S S S S S S S S S S S S  S  S  S  S
||--------------------------------------|
||o-------------------------------------|
||--------------------------------------|
||--3-3-3-3-3-3-3-3---------------------|
||o-----------------5-5-5-5-------------|
||---------------------------7--7--7--7-|


   S  S  S  S  S  S  S  S  S  S  S  S S S S S   4x
|-----------------------------------------------||
|----------------------------------------------o||
|-----------------------------------------------||
|-------------------------10-10-10-10-8-8-8-8---||
|-10-10-10-10-10-10-10-10----------------------o||
|-----------------------------------------------||
|
|  S  S  S  S  S  S  S  S  S  S  S  S S S S S   4x
|-----------------------------------------------||
|----------------------------------------------o||
|-----------------------------------------------||
|-----------------------------------------------||
|-------------------------10-10-10-10-8-8-8-8--o||
|--8--8--8--8--8--8--8--8-----------------------||


    S S S S S S S S S S S S S S S S   S S S S S S S S S S S S S S S S
||----------------------------------|----------------------------------|
||o---------------------------------|----------------------------------|
||----------------------------------|----------------------------------|
||--5-5-5-5-5-5-5-5-5-5-5-5-5-5-5-5-|----------------------------------|
||o-3-3-3-3-3-3-3-3-3-3-3-3-3-3-3-3-|-6-6-6-6-6-6-6-6-6-6-6-6-6-6-6-6--|
||----------------------------------|-4-4-4-4-4-4-4-4-4-4-4-4-4-4-4-4--|
|
|   Q       S S S S S S S S S S E     Q       S S S S S S S S S S E
||----------------------------------|---------2-1-----2-1-----2-1------|
||o---------4-3-1-1-4-3-1-1-4-3-1---|-4-----------4-4-----4-4-----4----|
||--5-------------------------------|----------------------------------|
||----------------------------------|----------------------------------|
||o---------------------------------|----------------------------------|
||----------------------------------|----------------------------------|


  S S S S S S S S S S S S S S S S   S S S S S S S S S S S S S S S S  4x
|---------------------------------|----------------------------------||
|---------------------------------|---------------------------------o||
|---------------------------------|----------------------------------||
|-5-5-5-5-5-5-5-5-5-5-5-5-5-5-5-5-|-6-6-6-6-6-6-6-6-6-6-6-6-6-6-6-6--||
|-3-3-3-3-3-3-3-3-3-3-3-3-3-3-3-3-|-4-4-4-4-4-4-4-4-4-4-4-4-4-4-4-4-o||
|---------------------------------|----------------------------------||
|
| Q       S S S S S S S S S S E     S S S S S S S S S S S S S S S S  4x
|---------------------------------|----------------------------------||
|---------4-3-1-1-4-3-1-1-4-3-1---|-2-2-4-4-5-5-4-4-2-2-4-4-5-5-4-4-o||
|-5-------------------------------|----------------------------------||
|---------------------------------|----------------------------------||
|---------------------------------|---------------------------------o||
|---------------------------------|----------------------------------||


    S S S S S S S S S S S S S S S S   S S S S S S S S S S S S S S S S
||----------------------------------|----------------------------------|
||o---------------------------------|----------------------------------|
||----------------------------------|----------------------------------|
||--5-5-5-5-5-5-5-5-5-5-5-5-5-5-5-5-|----------------------------------|
||o-3-3-3-3-3-3-3-3-3-3-3-3-3-3-3-3-|-6-6-6-6-6-6-6-6-6-6-6-6-6-6-6-6--|
||----------------------------------|-4-4-4-4-4-4-4-4-4-4-4-4-4-4-4-4--|
|
|   S S S S S S S S S S S S S S S S   S S S S S S S S S S S S S S S S
||----------------------------------|----------------------------------|
||o---------------------------------|----------------------------------|
||----------------------------------|----------------------------------|
||------------------5-5-5-5-6-6-6-6-|----------------------------------|
||o-3-3-3-3-3-3-3-3-----------------|-----------------6-6-6-6-5-5-5-5--|
||----------------------------------|-4-4-4-4-4-4-4-4------------------|


  S S S S S S S S S S S S S S S S
|---------------------------------|
|---------------------------------|
|---------------------------------|
|-5-5-5-5-5-5-5-5-5-5-5-5-5-5-5-5-|
|-3-3-3-3-3-3-3-3-3-3-3-3-3-3-3-3-|
|---------------------------------|
|
| S S S S S S S S S S S S S S S S
|---------------------------------|
|---------------------------------|
|---------------------------------|
|-----------------5-5-5-5-6-6-6-6-|
|-3-3-3-3-3-3-3-3-----------------|
|---------------------------------|


  S S S S S S S S S S S S S S S S          W
|-----------------------------------||----------*|
|----------------------------------o||----------*|
|-----------------------------------||----------*|
|-6-6-6-6-6-6-6-6-6-6-6-6-6-6-6-6---||----------*|
|-4-4-4-4-4-4-4-4-4-4-4-4-4-4-4-4--o||----------*|
|-----------------------------------||----------*|
|
| S S S S S S S S S S S S S S S S        W
|-----------------------------------||----------*|
|----------------------------------o||----------*|
|-----------------2-2-2-2-1-1-1-1---||----------*|
|-----------------------------------||---5------*|
|-4-4-4-4-4-4-4-4------------------o||---3------*|
|-----------------------------------||----------*|

  Visit MetalTabs.com for more metal tablature

bottom separator

Contact Us | Privacy Policy | Disclaimer | Legal Notice
Copyright © 2001-2014 MetalTabs.com. All Rights Reserved.