top separator

Home

Forum

What's New

Submit a Tab

FAQ

Links

Contact Us

Link to Us

MetalTabs.com logo

Bands

0-9

A

B

C

D

E

F

G

H

I

J

K

L

M

N

O

P

Q

R

S

T

U

V

W

X

Y

Z

Search

What

Where
 

Belphegor - "Fleischrequiem 69 (Outro)" Guitar Tab

Plain Text Version
More Belphegor Tabs

Hits: 5538
Rated: 3.33 out of 5 (3 votes)
Updated: 2005-09-14 20:24:23

 

By:

sendpm.gif

email.gif

Important note
This tab is available online because we obtained explicit permission from Belphegor or their label.


#----------------------------------PLEASE NOTE---------------------------------#
#This file is the author's own work and represents their interpretation of the #
#song. You may only use this file for private study, scholarship, or research. #
#Unless specified otherwise, this is NOT an official tab from the band members.#
#------------------------------------------------------------------------------#

  Visit MetalTabs.com for more metal tablature
  
Fleischrequiem 69
Band:  Belphegor
Album: Lucifer Incestus
Song:  Fleischrequiem 69

Copyright (c)  (Napalm Records) (2004)

Version 1.0 - 2005

Transcribed By: (Alex)
Email:          (Mari8i@hotmail.com)


.  - palm mute           /  - slide up to
\  - slide down to       ~  - vibrato
h  - hammer on           b  - Bend
p  - pull off            Suffixes for bend
t  - tap                 f  - full bend    h - half bend
ph - pinched harmonic    q  - quarter bend t - tap bend
*  - see comment         ^  - Hold bend    r release bend
x  - Stuccatto           ~  - vibrato bend
,  - slight palm mute    () - ghost note, sustained note
"  - tremolo note        <> - Trill

TUNING D G C F A D

Dist (git 1)

D||-----------------|---------------------|-------------------------|
A||-----------------|---------------------|-------------------------|
F||--6"---8"---9"---|-------9"---8"-------|--(6)--------------------|
C||--x"---x"---x"---|--6"---x"---x"-------|--(6)-------------(6)----|
G||--4"---6"---7"---|--x"---7"---6--------|--(4)-------------(6)----|
D||-----------------|--4"-----------------|------------------(4)----|

Clean (git2)

D||-----------------------------4--------------------------|
A||------------5---------------------5-----------5---------|
F||--6--------------6---------------------------------6----|
C||--6-----------------------------------------------------|
G||--4----4----------------4--------------4----------------|
D||--------------------------------------------------------|



D||------------4---------------------------------4---------|
A||-----------------4-----------4---------------------4----|
F||----------------------------------4---------------------|
C||--6-----------------------------------------------------|
G||--6-----------------------------------------------------|
D||--4----4----------------4--------------4----------------|


D||---------------------------------------------------------------------------|
A||---------------------------------------------------------------------------|
F||--6----6--6----6--8--9----9--9--8----4----4--4---4/5/4---------------------|
C||--x----x--x----x--x--x----x--x--x----x----x--x---x/x/x----6----6--6---6----|
G||--4----4--4----4--6--7----7--7--6----2----2--2---2/3/2----x----x--x---x----|
D||----------------------------------------------------------4----4--4---4----|


D||---------------------------------------------------------------|
A||---------------------------------------------------------------|
F||--9----9--9---9--11-11/13----13--13--11-8----8--8----8/9/8---4-|
C||--x----x--x---x--x--x-/x-----x---x---x--x----x--x----x/x/x---x-|
G||--7----7--7---7--9--9-/11----11--11--9--6----6--6----6/7/6---2-|
D||---------------------------------------------------------------|

SOLOS (clean)
1)

D||--------------------------------------------------------|
A||--9--7-------------------------7--9-10-10--9--10-10-9~--|
F||--------9--8--9--6----6--8--9---------------------------|
C||--------------------------------------------------------|
G||--------------------------------------------------------|
D||--------------------------------------------------------|

2)
D||--16-16-16-16-17-17-16-16-17-17-16-16-14-14-------------------------|
A||--------------------------|-----------------17-17-16-16-17-17-16-16-|
F||--------------------------|-----------------------------------------|
C||--------------------------|-----------------------------------------|
G||--------------------------|-----------------------------------------|
D||--------------------------|-----------------------------------------|

  Visit MetalTabs.com for more metal tablature

bottom separator

Contact Us | Privacy Policy | Disclaimer | Legal Notice
Copyright © 2001-2014 MetalTabs.com. All Rights Reserved.