top separator

Home

Forum

What's New

Submit a Tab

FAQ

Links

Contact Us

Link to Us

MuSpy.com

MetalTabs.com logo

Bands

0-9

A

B

C

D

E

F

G

H

I

J

K

L

M

N

O

P

Q

R

S

T

U

V

W

X

Y

Z

Search

What

Where
 

Malevolent Creation - "Enslaved" Guitar Tab

Plain Text Version
More Malevolent Creation Tabs

Hits: 3889
Rated: 4.00 out of 5 (7 votes)
Updated: 2005-09-14 19:55:08

 

By:

humancorpse

sendpm.gif

email.gif

Important note
This tab is available online because we obtained explicit permission from Malevolent Creation or their label.


#----------------------------------PLEASE NOTE---------------------------------#
#This file is the author's own work and represents their interpretation of the #
#song. You may only use this file for private study, scholarship, or research. #
#Unless specified otherwise, this is NOT an official tab from the band members.#
#------------------------------------------------------------------------------#

  Visit MetalTabs.com for more metal tablature
  
Band:  Malevolent Creation
Album: Eternal
Song:  Enslaved

Copyright (c)  Pavement 1996
Version 1.0 - 20.08.05

Transcribed By: Sigbjørn Henning (human corpse)
Email:          Siggi_scratch@hotmail.com


.  - palm mute           /  - slide up to
\  - slide down to       ~  - vibrato
h  - hammer on           b  - Bend
p  - pull off            Suffixes for bend
t  - tap                 f  - full bend    h - half bend
ph - pinched harmonic    q  - quarter bend t - tap bend
*  - see comment         ^  - Hold bend    r release bend
x  - Stuccatto           ~  - vibrato bend
,  - slight palm mute    () - ghost note, sustained note
"  - tremolo note        <> - Trill

Tuning C


Riff 1a
|-------------------------------------------------------------------|
|-------------------------------------------------------------------|
|-------------------------------------------------------------------|
|-------------------------------------------------------------------|
|---- 6666-6666-4444-7777------6666-6666-4444-7777-6666-------------|
|4444---------------------4444--------------------------------------|

|-------------------------------------------------------------------|
|-------------------------------------------------------------------|
|-------------------------------------------------------------------|
|-------------------------------------------------------------------|
|-----6666-6666-4444-7777------6666-6666-4444-7777-9999-------------|
|4444---------------------4444--------------------------------------|

Riff 2 ( those are 10s not 1s and 0s)
|-------------------------------------------------------------------|
|-------------------------------------------------------------------|
|-------------------------------------------------------------------|
|-------------------------------------------------------------------|
|7777-6666-10101010-9999-7777-6666-9999-10101010--------------------|
|-------------------------------------------------------------------|

Riff 1a
|-------------------------------------------------------------------|
|-------------------------------------------------------------------|
|-------------------------------------------------------------------|
|-------------------------------------------------------------------|
|---- 6666-6666-4444-7777------6666-6666-4444-7777-6666-------------|
|4444---------------------4444--------------------------------------|

|-------------------------------------------------------------------|
|-------------------------------------------------------------------|
|-------------------------------------------------------------------|
|-------------------------------------------------------------------|
|-----6666-6666-4444-7777------6666-6666-4444-7777-9999-------------|
|4444---------------------4444--------------------------------------|

Riff 1b (Guitar 1)
|-------------------------------------------------------------------|
|-------------------------------------------------------------------|
|-------------------------------------------------------------------|
|-------------------------------------------------------------------|
|---- 6666-6666-4444-7777------6666-6666-4444-7777-6666-------------|
|4444---------------------4444--------------------------------------|

|-------------------------------------------------------------------|
|-------------------------------------------------------------------|
|-------------------------------------------------------------------|
|-------------------------------------------------------------------|
|-----6666-6666-4444-7777------6666-6666-4444-7777-9999-------------|
|4444---------------------4444--------------------------------------|

Riff 1b (guitar 2)
|-------------------------------------------------------------------|
|-------------------------------------------------------------------|
|-------------------------------------------------------------------|
|-------------------------------------------------------------------|
|---- 6666-6666-4444-7777------6666-6666-4444-7777-6666-------------|
|4444---------------------4444--------------------------------------|

|-------------------------------------------------------------------|
|-------------------------------------------------------------------|
|-------------------------------------------------------------------|
|-------------------------------------------------------------------|
|-----9999-9999-7777-10101010------9999-9999-7777-10101010-12121212-|
|7777-------------------------7777----------------------------------|

Riff 2b (guitar 1) ( those are 10s not 1s and 0s)
|-------------------------------------------------------------------|
|-------------------------------------------------------------------|
|-------------------------------------------------------------------|
|-------------------------------------------------------------------|
|7777-6666-10101010-9999-7777-6666-9999-10101010--------------------|
|-------------------------------------------------------------------|

|-------------------------------------------------------------------|
|-------------------------------------------------------------------|
|-------------------------------------------------------------------|
|-------------------------------------------------------------------|
|7777-6666-10101010-9999-7777-6666-9999-10101010--------------------|
|-------------------------------------------------------------------|


Riff 2b (Guitar 2)

|-------------------------------------------------------------------|
|-------------------------------------------------------------------|
|-------------------------------------------------------------------|
|-------------------------------------------------------------------|
|7777-6666-10101010-9999-7777-6666-9999-10101010--------------------|
|-------------------------------------------------------------------|

|-------------------------------------------------------------------|
|-------------------------------------------------------------------|
|-------------------------------------------------------------------|
|-------------------------------------------------------------------|
|7777-6666-10101010-9999-10101010-9999-12121212-13131313------------|
|-------------------------------------------------------------------|

Riff 3

|-------------------------------------------------------------------|
|-------------------------------------------------------------------|
|-------------------------------------------------------------------|
|-------------------------------------------------------------------|
|9--8--12--11-9--8--11-12-------------------------------------------|
|7--6--10--9--7--6--9--10-------------------------------------------|

Fill

|-------------------------------------------------------------------|
|-------------------------------------------------------------------|
|-------------------------------------------------------------------|
|-------------------------------------------------------------------|
|9--8---------------------------------------------------------------|
|7--6---------------------------------------------------------------|

Riff 4

|-------------------------------------------------------------------|
|-------------------------------------------------------------------|
|-------------------------------------------------------------------|
|-------------------------------------------------------------------|
|-------------------------------------------------------------------|
|7777-5555-7777-5555-7777-5555-8888-7777-5555-7777-5555-7777-5555---|

|-------------------------------------------------------------------|
|-------------------------------------------------------------------|
|-------------------------------------------------------------------|
|-------------------------------------------------------------------|
|-------------------------------------------------------------------|
|4444-7777-5555-7777-5555-7777-5555-8888-7777-5555-7777-5555-7777---|

|-------------------------------------------------------------------|
|-------------------------------------------------------------------|
|-------------------------------------------------------------------|
|-------------------------------------------------------------------|
|-------------------------------------------------------------------|
|5555-4433----------------------------------------------------------|

Riff 5 (This is kinda hard for me to hear, but it dosn`t sound too bad this way)

|-------------------------------------------------------------------|
|-------------------------------------------------------------------|
|-------------------------------------------------------------------|
|8--7--10--9---8--5-7--5-7-8----------------------------------------|
|8--7- 10--9---8--5-7--5-7-8----------------------------------------|
|6--5--8---7---6--3-5--3-5-6-0000-----------------------------------|

Riff 6

|-------------------------------------------------------------------|
|-------------------------------------------------------------------|
|-------------------------------------------------------------------|
|-------------------------------------------------------------------|
|3-------------4-------------4\3-------------6--3-------------4-----|
|1-0-0-0-0-0-0-2-0-0-0-0-0-0-2\1-0-0-0-0-0-0-4--1-0-0-0-0-0-0-2-----|
   . . . . . .   . . . . . .     . . . . . .      . . . . . .

|-------------------------------------------------------------------|
|-------------------------------------------------------------------|
|-------------------------------------------------------------------|
|-------------------------------------------------------------------|
|-------------4\3-------------7--3-------------4-------------4\3----|
|-0-0-0-0-0-0-2\1-0-0-0-0-0-0-5--1-0-0-0-0-0-0-2-0-0-0-0-0-0-2\1----|
  . . . . . .     . . . . . .      . . . . . .   . . . . . .

|-------------------------------------------------------------------|
|-------------------------------------------------------------------|
|-------------------------------------------------------------------|
|-------------------------------------------------------------------|
|-------------6--3-------------4-------------7--3-------------------|
|-0-0-0-0-0-0-4--1-0-0-0-0-0-0-2-0-0-0-0-0-0-5--1-------------------|
  . . . . . .      . . . . . .   . . . . . .


Riff 1a
|-------------------------------------------------------------------|
|-------------------------------------------------------------------|
|-------------------------------------------------------------------|
|-------------------------------------------------------------------|
|---- 6666-6666-4444-7777------6666-6666-4444-7777-6666-------------|
|4444---------------------4444--------------------------------------|

|-------------------------------------------------------------------|
|-------------------------------------------------------------------|
|-------------------------------------------------------------------|
|-------------------------------------------------------------------|
|-----6666-6666-4444-7777------6666-6666-4444-7777-9999-------------|
|4444---------------------4444--------------------------------------|

Riff 1b (Guitar 1)
|-------------------------------------------------------------------|
|-------------------------------------------------------------------|
|-------------------------------------------------------------------|
|-------------------------------------------------------------------|
|---- 6666-6666-4444-7777------6666-6666-4444-7777-6666-------------|
|4444---------------------4444--------------------------------------|

|-------------------------------------------------------------------|
|-------------------------------------------------------------------|
|-------------------------------------------------------------------|
|-------------------------------------------------------------------|
|-----6666-6666-4444-7777------6666-6666-4444-7777-9999-------------|
|4444---------------------4444--------------------------------------|

Riff 1b (guitar 2)
|-------------------------------------------------------------------|
|-------------------------------------------------------------------|
|-------------------------------------------------------------------|
|-------------------------------------------------------------------|
|---- 6666-6666-4444-7777------6666-6666-4444-7777-6666-------------|
|4444---------------------4444--------------------------------------|

|-------------------------------------------------------------------|
|-------------------------------------------------------------------|
|-------------------------------------------------------------------|
|-------------------------------------------------------------------|
|-----9999-9999-7777-10101010------9999-9999-7777-10101010-12121212-|
|7777-------------------------7777----------------------------------|

Riff 2b (guitar 1) ( those are 10s not 1s and 0s)
|-------------------------------------------------------------------|
|-------------------------------------------------------------------|
|-------------------------------------------------------------------|
|-------------------------------------------------------------------|
|7777-6666-10101010-9999-7777-6666-9999-10101010--------------------|
|-------------------------------------------------------------------|

|-------------------------------------------------------------------|
|-------------------------------------------------------------------|
|-------------------------------------------------------------------|
|-------------------------------------------------------------------|
|7777-6666-10101010-9999-7777-6666-9999-10101010--------------------|
|-------------------------------------------------------------------|


Riff 2b (Guitar 2)

|-------------------------------------------------------------------|
|-------------------------------------------------------------------|
|-------------------------------------------------------------------|
|-------------------------------------------------------------------|
|7777-6666-10101010-9999-7777-6666-9999-10101010--------------------|
|-------------------------------------------------------------------|

|-------------------------------------------------------------------|
|-------------------------------------------------------------------|
|-------------------------------------------------------------------|
|-------------------------------------------------------------------|
|7777-6666-10101010-9999-10101010-9999-12121212-13131313------------|
|-------------------------------------------------------------------|

Riff 3

|-------------------------------------------------------------------|
|-------------------------------------------------------------------|
|-------------------------------------------------------------------|
|-------------------------------------------------------------------|
|9--8--12--11-9--8--11-12-------------------------------------------|
|7--6--10--9--7--6--9--10-------------------------------------------|

Fill

|-------------------------------------------------------------------|
|-------------------------------------------------------------------|
|-------------------------------------------------------------------|
|-------------------------------------------------------------------|
|9--8---------------------------------------------------------------|
|7--6---------------------------------------------------------------|

End of song.This may not be 100% right, but it should give you a good
idea of how to play the song. Don`t hesitate to contact me for comments
or corrections at address shown below. Or just pm me at the metal tabs
forum.

  Visit MetalTabs.com for more metal tablature

bottom separator

Contact Us | Privacy Policy | Disclaimer | Legal Notice
Copyright © 2001-2014 MetalTabs.com. All Rights Reserved.