top separator

Home

Forum

What's New

Submit a Tab

FAQ

Links

Contact Us

Link to Us

MuSpy.com

MetalTabs.com logo

Bands

0-9

A

B

C

D

E

F

G

H

I

J

K

L

M

N

O

P

Q

R

S

T

U

V

W

X

Y

Z

Search

What

Where
 

Bolt Thrower - "Celestial Sanctuary" Bass Tab

Plain Text Version
More Bolt Thrower Tabs

Hits: 3365
Updated: 2005-09-14 05:56:29

 

By:

sendpm.gif

email.gif

Important note
This tab is available online because we obtained explicit permission from Bolt Thrower or their label.


#----------------------------------PLEASE NOTE---------------------------------#
#This file is the author's own work and represents their interpretation of the #
#song. You may only use this file for private study, scholarship, or research. #
#Unless specified otherwise, this is NOT an official tab from the band members.#
#------------------------------------------------------------------------------#

  Visit MetalTabs.com for more metal tablature
  
Bolt Thrower
    Celestial Sanctuary (The IVth Crusade)
	Earache Copyright 1992


4/4     Type de la mesure
1 & 2   Battue de la mesure
BEADG   Accordage (Je joue sur une six cordes "Hönher Professionnel BB VI")

||       ||
||O     o||     Barres de reprise
||O     o||
||       ||

Seigno $
Dal Seigno $    Retourner au signe (Seigno)
s       Silence

Tempo 4 = 80    Vitesse du morceau exprimée en note par minute
			- 1+1	La carré
NB: Avec un point les   - 1     La ronde
durées sont pointées.   - 2     La blanche
4. une noire pointée.   - 4     La noire
			- 8	La croche
			- 16	La double croche
			- 32	La triple croche etc.

Rit.    Retarder

0_0     Notes liées

5       Note accentuée
^

535     Tiré descendant
\t/

353     Tiré ascendant
\t/

Transcrite par FuDoShin EX-LMC "FR: BOURGOGNE21" (SebGossot@aol.com)


	Tempo 4 = 80

 Intro
                    8 fois
        1 & 2 & 3 & 4 &
  G ||  ----------------  ||
4 D ||o ---------------- o||
  A ||  -----4-3-3--3---  ||
4 E ||o ---24---3--3-30- o||
  B ||  2---------------  ||


 Seigno $
                                                                   4 fois
    1 & 2 & 3 & 4 &  1 & 2 & 3 & 4 &  1 & 2 & 3 & 4 &  1 & 2 & 3 & 4 &
||  ----------------|----------------|----------------|----------------  ||
||o ----------------|----------------|----------------|---------------- o||
||  ----------------|----------------|----------------|--------------4-  ||
||o --------5-2-4---|--------5-2-4---|--------5-2-4---|--------5-2-4--- o||
||  22222222------22|22222222------22|22222222------22|22222222--------  ||


                                4 fois
    1   &   2   &   3   &   4   &
||  --------------------------------  ||
||o -------------------------------- o||
||  ----------4_4-------------------  ||
||o ------2-4----------------------- o||
||  2-------------3_3---3---3---3---  ||


 Dal Seigno $
				 4 fois
    1 & 2 & 3 & 4 &  1 & 2 & 3 & 4 &
||  ----------------|----------------  ||
||o ----------------|---------------- o||
||  ----------------|----------44--44  ||
||o ----------222200|0000000022--22-- o||
||  2222222233------|----------------  ||


 figure 1
 1 & 2 & 3 & 4 &
|----------------||
|----------------||
|----------------||
|----------------||
|2-s----------2-2||


               16 fois
    1 & 2 & 3 & 4 &
||  ----------------  ||
||o ---------------- o||
||  -----4-3-3--3---  ||
||o ---24---3--3-30- o||
||  2---------------  ||

                                4 fois
    1   &   2   &   3   &   4   &
||  --------------------------------  ||
||o -------------------------------- o||
||  ----------4_4-------------------  ||
||o ------2-4----------------------- o||
||  2-------------3_3---3---3---3---  ||


                                 8 fois
   1 & 2 & 3 & 4 &  1 & 2 & 3 & 4 &
||  ----------------|----------------  ||
||o ----------------|---------------- o||
||  ----------------|----------44--44  ||
||o ----------222200|0000000022--22-- o||
||  2222222233------|----------------  ||


                                8 fois
    1   &   2   &   3   &   4   &
||  --------------------------------  ||
||o -------------------------------- o||
||  ----------4_4-------------------  ||
||o ------2-4----------------------- o||
||  2-------------3_3---3---3---3---  ||


                                                                   4 fois
    1 & 2 & 3 & 4 &  1 & 2 & 3 & 4 &  1 & 2 & 3 & 4 &  1 & 2 & 3 & 4 &
||  ----------------|----------------|----------------|----------------  ||
||o ----------------|----------------|----------------|---------------- o||
||  ----------------|----------------|----------------|--------------4-  ||
||o --------5-2-4---|--------5-2-4---|--------5-2-4---|--------5-2-4--- o||
||  22222222------22|22222222------22|22222222------22|22222222--------  ||


 figure 2
		4 fois
    1 & 2 & 3 & 4 &
||  ----------------  ||
||o ---------------- o||
||  ----------------  ||
||o ---------------- o||
||  2-s-------------  ||


 Fermeture
	        7 fois
    1 & 2 & 3 & 4 &       1 & 2 & 3 & 4 &
||  ----------------  || |----------------||
||o ---------------- o|| |----------------||
||  ----------------  || |----------------||
||o ---------------- o|| |----------------||
||  2-s-----2-s-----  || |2-s---2-2---2-2-||

  Visit MetalTabs.com for more metal tablature

bottom separator

Contact Us | Privacy Policy | Disclaimer | Legal Notice
Copyright © 2001-2014 MetalTabs.com. All Rights Reserved.