top separator

Home

Forum

What's New

Submit a Tab

FAQ

Links

Contact Us

Link to Us

MetalTabs.com logo

Bands

0-9

A

B

C

D

E

F

G

H

I

J

K

L

M

N

O

P

Q

R

S

T

U

V

W

X

Y

Z

Search

What

Where
 

Countess - "Bloed voor Wodan" Guitar Tab

Plain Text Version
More Countess Tabs

Hits: 1936
Updated: 2005-09-13 07:04:56

 

By:

Unadorned

sendpm.gif

email.gif

Important note
This tab is available online because we obtained explicit permission from Countess or their label.


#----------------------------------PLEASE NOTE---------------------------------#
#This file is the author's own work and represents their interpretation of the #
#song. You may only use this file for private study, scholarship, or research. #
#Unless specified otherwise, this is NOT an official tab from the band members.#
#------------------------------------------------------------------------------#

  Visit MetalTabs.com for more metal tablature
  
Band:  Countess
Album: Heilig Vuur
Song:  Bloed Voor Wodan

Copyright (c)  Barbarian Wrath, 2004
Version 1.0 - 8/13/05

Transcribed By: Mike
Email:          mfmierzejewski at aol dot com


.  - palm mute           /  - slide up to
\  - slide down to       ~  - vibrato
h  - hammer on           b  - Bend
p  - pull off            Suffixes for bend
t  - tap                 f  - full bend    h - half bend
ph - pinched harmonic    q  - quarter bend t - tap bend
*  - see comment         ^  - Hold bend    r release bend
x  - Stuccatto           ~  - vibrato bend
,  - slight palm mute    () - ghost note, sustained note
"  - tremolo note        <> - Trill

Countess slay, hopefully I'll be tabbing out more from this album
in the next few months. Please rate if you use this tab, it's the
only way I'll improve.


Tuning: Standard (EADGBe)


Intro Lead
|----------5-7-5---------------5-7-8-7-5-7----12-10-8-7--8--|
|-5----7-8-------8-7-8-----7-8------------------------------|
|-----------------------------------------------------------|
|-----------------------------------------------------------|
|-----------------------------------------------------------|
|-----------------------------------------------------------|
cont'd
|-12-10-8-7--8--8-7-5-----5---------------------------------|
|---------------------8-----8-7-5~~~~~~~--------------------|
|-----------------------------------------------------------|
|-----------------------------------------------------------|
|-----------------------------------------------------------|
|-----------------------------------------------------------|

Riff 1
|----------------------------------------|
|----------------------------------------|
|----------------------------------------|
|-2-2-----4-4-----5--7--9----9--7--5--4--|
|-2-2-----4-4-----5--7--9----9--7--5--4--|
|-0-0-----2-2-----3--5--7----7--5--3--2--|

Riff 1 Lead
|----------------------------------------|
|-5-5-----7-7-----8--10-12---12-10-8--7--|
|----------------------------------------|
|----------------------------------------|
|----------------------------------------|
|----------------------------------------|



Riff 2 (very light palm-muting)
|------------------------------------------------------|
|------------------------------------------------------|
|------------------------------------------------------|
|-2--2--2--2--2--2--2--2--2--2--2--2--2-2-2--2-2-2-----|
|-2--2--2--2--2--2--2--2--2--2--2--2--2-2-2--2-2-2-----|
|-0--0--0--0--0--0--0--0--0--0--0--0--0-0-0--0-0-0-----|
  .  .  .  .  .  .  .  .  .  .  .  .  . . .  . . .


Riff 3
|-------------------------------------------------------------------|
|-------------------------------------------------------------------|
|-------------------------------------------------------------------|
|-2-2-2-2-2-2-2-2-4-4-4-4-4-4-4-4-7-7-7-7-7-7-7-7-5-5-5-5-4-4-7-5---|
|-2-2-2-2-2-2-2-2-4-4-4-4-4-4-4-4-7-7-7-7-7-7-7-7-5-5-5-5-4-4-7-5---|
|-0-0-0-0-0-0-0-0-2-2-2-2-2-2-2-2-5-5-5-5-5-5-5-5-3-3-3-3-2-2-5-3---|


Fill 1
|-----------------|
|-----------------|
|-----------------|
|-2---------------|
|-2---------------|
|-0---------------|


Riff 4
|---------------------------------------|
|---------------------------------------|
|---------------------------------------|
|-2--------2--------2--------2----------|
|-2--------2--------2--------2----------|
|-0--------0--------0--------0----------|


Fill 2
|------------------------|
|------------------------|
|------------------------|
|-2------2---------------|
|-2------2---------------|
|-0------0---------------|


Fill 3
|--------------|
|--------------|
|--------------|
|-2--2--2--2---|
|-2--2--2--2---|
|-0--0--0--0---|


Solo
|-------------5----8-7----8-7-5-7----5------------|
|-5----8-7-----------------------------8-7-8------|
|-------------------------------------------------|
|-------------------------------------------------|
|-------------------------------------------------|
|-------------------------------------------------|
cont'd
|-----5-------5-------5---------------------------|
|-7-8---8-7-8---8-7-8---8-7-5~~~~~~---------------|
|-------------------------------------------------|
|-------------------------------------------------|
|-------------------------------------------------|
|-------------------------------------------------|


Riff 5
|------------------------------------------------------------|
|------------------------------------------------------------|
|------------------------------------------------------------|
|-----------------------------------------------------2------|
|-------------2---3---2-----------------------2---3-------3--|
|-0---2---3---------------3---2---0---2---3------------------|


Structure:
Intro Lead             x1
Riff 1                 x1
Riff 1 w/lead          x3
Riff 2                 x6
Riff 3                 x2
Riff 2                 x4
Fill 1                 x1
Intro Lead over Riff 4 x2
Fill 2                 x1

Rest

Solo over Riff 4       x2
Fill 3                 x1
Riff 1 w/lead          x4
Riff 2                 x6
Riff 3                 x2
Riff 5                 x2
Riff 1                 x4
Riff 2                 x3

  Visit MetalTabs.com for more metal tablature

bottom separator

Contact Us | Privacy Policy | Disclaimer | Legal Notice
Copyright © 2001-2014 MetalTabs.com. All Rights Reserved.