top separator

Home

Forum

What's New

Submit a Tab

FAQ

Links

Contact Us

Link to Us

MetalTabs.com logo

Bands

0-9

A

B

C

D

E

F

G

H

I

J

K

L

M

N

O

P

Q

R

S

T

U

V

W

X

Y

Z

Search

What

Where
 

Lord Gore - "Gastric Gore-Met" Guitar Tab

Plain Text Version
More Lord Gore Tabs

Hits: 3117
Rated: 4.00 out of 5 (3 votes)
Updated: 2005-09-13 07:04:48

 

By:

sendpm.gif

email.gif

Important note
This tab is available online because we obtained explicit permission from Lord Gore or their label.


#----------------------------------PLEASE NOTE---------------------------------#
#This file is the author's own work and represents their interpretation of the #
#song. You may only use this file for private study, scholarship, or research. #
#Unless specified otherwise, this is NOT an official tab from the band members.#
#------------------------------------------------------------------------------#

  Visit MetalTabs.com for more metal tablature
  
Band:  Lord Gore
Album: Resickened
Song:  Gastric Gore-met

Copyright (c)  Razorback records 2004
Version 1.0 - 8/13/05

Transcribed By: Jorge(Haemorrhage)
Email:          xlos_crudos4x@yahoo.com


.  - palm mute           /  - slide up to
\  - slide down to       ~  - vibrato
h  - hammer on           b  - Bend
p  - pull off            Suffixes for bend
t  - tap                 f  - full bend    h - half bend
ph - pinched harmonic    q  - quarter bend t - tap bend
*  - see comment         ^  - Hold bend    r release bend
x  - Stuccatto           ~  - vibrato bend
,  - slight palm mute    () - ghost note, sustained note
"  - tremolo note        <> - Trill


Take the time to down tune your guitar ! To B! No standard tuning!

------------------------------
------------------------------
------------------------------
------------------------------
-2-2--2--2-2--2-5-7--7-8-3--3-
-0-0--0--0-0--0-3-5--5-6-1--1-


---------------
---------------
---------------
---------------
-5-7--7-8-3--3-
-3-5--5-6-1--1-
.................


-------------------------------------------------------------------------------
-------------------------------------------------------------------------------
-------------------------------------------------------------------------------
-------------------------------------------------------------------------------
--------2"-----3"-----------2"-----1"-----------2"-----3"--------5-7--7-8-3--3-
-0"-------3"-2"------0"-------3"-2"------0"-------3"-2"------0"--3-5--5-6-1--1-



------------------------------------------
------------------------------------------
------------------------------------------
------------------------------------------
-------------------------5*----5--7--5--2-
-7~--6~--5~--0--3~--0--6~--5~--3--5--3--0-


--------------------------------------------
--------------------------------------------
--------------------------------------------
--------------------------------------------
---------------------------5*----5--7--5--2-
-7~--0-6~--0-5~--0-3~--0-6---5~--3--5--3--0-


---------------
---------------
---------------x3 (third time palm muted)
---------------
-5-7--7-8-3--3-
-3-5--5-6-1--1-


end with
-----------
-----------
-----------
-----------
-2-2--2--2-
-0-0--0--0
 .........


The transcripition is kind of messy so it might confuse some..But it's all here
and should be pretty accurate..I think.....if something just seems way off
let me know please...I typed up all of this as fast as i could..

  Visit MetalTabs.com for more metal tablature

bottom separator

Contact Us | Privacy Policy | Disclaimer | Legal Notice
Copyright © 2001-2014 MetalTabs.com. All Rights Reserved.