top separator

Home

Forum

What's New

Submit a Tab

FAQ

Links

Contact Us

Link to Us

MetalTabs.com logo

Bands

0-9

A

B

C

D

E

F

G

H

I

J

K

L

M

N

O

P

Q

R

S

T

U

V

W

X

Y

Z

Search

What

Where
 

Cancer - "Body Count" Guitar Tab

Plain Text Version
More Cancer Tabs

Hits: 2305
Updated: 2005-09-13 07:04:35

 

By:

kin

sendpm.gif

email.gif

Important note
We did our best to reach Cancer and ask for their permission to publish this tab. Unfortunately they did not respond to our requests or we could not find a way to contact them. This tab is available online until Cancer tells us to take it down.


#----------------------------------PLEASE NOTE---------------------------------#
#This file is the author's own work and represents their interpretation of the #
#song. You may only use this file for private study, scholarship, or research. #
#Unless specified otherwise, this is NOT an official tab from the band members.#
#------------------------------------------------------------------------------#

  Visit MetalTabs.com for more metal tablature
  
Band:  Cancer
Album: To The Gory End
Song:  Body Count

Copyright (c)  Vinyl Solution / Restless 1990
Version 1.0 - 8/13/05

Transcribed By: Dominic Rodriguez (kin)
Email:          kalidice@email.com

Special Legend Key:

.    = Palm Mute
,    = Slight Palm Mute
-3-  = Triplet

Tuning: DGCFAD

Riff 1

D|-------|
A|-------|
F|-------|
C|9---7--|
G|7-8-5-7|
D|--6---5|

Riff 2

D|--------------------------------------------|
A|--------------------------------------------|
F|--------------------------------------------|
C|--------------------------------------------|
G|-------------777-----555-----3-3-3-3-3-3-2~~|
D|000000000000-----666-----555-1-1-1-1-1-1----|
  ............ ... ... ... ... . . . . . .

Riff 3

D|-------|
A|-------|
F|-------|
C|9---7--|
G|7-8-5-7|
D|--6---5|

Riff 4

D|--------------------------------------------------|
A|--------------------------------------------------|
F|--------------------------------------------------|
C|--------------------------------------------------|
G|-------------------777-----555-----3-3-3-3-3-3-2~~|
D|0-000000-0-000000------666-----555-1-1-1-1-1-1----|
  . ...... . ......  ... ... ... ... . . . . . .

Riff 5 x2

D|-----------------------------------------------------|
A|-----------------------------------------------------|
F|-----------------------------------------------------|
C|9---7------------------------------------------------|
G|7-8-5-7---------------777-----555-----3-3-3-3-3-3-2~~|
D|--6---5--000000000000-----666-----555-1-1-1-1-1-1----|
           ............ ... ... ... ... . . . . . .

Riff 6 x2
                                                      ph- ph-
D|-----------------------------------------------------------|
A|--------------------------------------------------------3-2|
F|--------------------------3-2-----------------------4-3----|
C|----------------------4-3-----------------------5-4--------|
G|2--2-2-2--2-2-----5-4---------5--5-5-5--5-5-5-4------------|
D|0--0-0-0--0-0-5-4-------------3--3-3-3--3-3----------------|
     . .    . . . . . . . . . .    . .    . . . . . . . . . .

Riff 7 x2

D|-------------------------------------------------|
A|--------------------------------------------------|
F|--------------------------------------------------|
C|----------------------------4--------------3~~~---|
G|3--3-2----2-2-3--3-2----2-2-2-2-4--4-4-5-------2-2|
D|1--1-0----0-0-1--1-0----0-0-----2--2-2-3-3-----0-0|
     .      . .    .      . .   x    . .   x     . .

Riff 8 (Fill riff)

D|---------|
A|---------|
F|---------|
C|---------|
G|2========|
D|0========|


Riff 9

D|---------------------------------------------|
A|---------------------------------------------|
F|---------------------------------------------|
C|---------------5\4-4-------------------------|
G|---------------3\2-2----------2-1-----2-1----|
D|333333333333333------33333333-----2-1-----2-1|
  ...............      ........ . . . . . . . .

Riff 10

D|------------------------------------------|
A|------------------------------------------|
F|------------------------------------------|
G|------------5\4-4----------5-4-----6-5----|
C|------------3\2-2--------------5-4-----6-5|
D|33333333333-------33333333----------------|
  ...........       ........ , , , , , , , ,

Riff 11

D|--------------------------------------------|
A|--------------------------------------------|
F|--------------------------------------------|
G|------------5\4-4------------------------3/4|
C|------------3\2-2----------222-1-----2-1-1/2|
D|33333333333-------33333333-------2-1--------|
  ...........       ........ ... . . . . .

Riff 12

D|------------------------------------------|
A|------------------------------------------|
F|------------------------------------------|
G|------------5\4-4----------5-4-----7-6----|
C|------------3\2-2--------------5-4-----7-6|
D|33333333333-------33333333----------------|
  ...........       ........ , , , , , , , ,

Riff 13

D|----------------------------------|
A|----------------------------------|
F|----------------------------------|
G|------------4-5-3-----------------|
C|2-2-2-2-2-2-2-3-1-2-2-2-2------2~~|
D|0-0-0-0-0-0-------0-0-0-0--1~~----|
   ^ ^ ^ ^ ^         ^ ^ ^ ^
  (Slight stop inbetween each ^)

Riff 14

D|------------------------------------------|
A|------------------------------------------|
F|------------------------------------------|
G|------------4-5-3-------------------------|
C|2-2-2-2-2-2-2-3-1-2-2-2-2--5-4-----4-3----|
D|0-0-0-0-0-0-------0-0-0-0------5-4-----4-3|
   ^ ^ ^ ^ ^         ^ ^ ^ ^ . . . . . . . .
  (Slight stop inbetween each ^)

Riff 15

D|----------------------------------|
A|----------------------------------|
F|----------------------------------|
G|------------4-5-3-----------------|
C|2-2-2-2-2-2-2-3-1-2-2-2-2------2~~|
D|0-0-0-0-0-0-------0-0-0-0--1~~----|
   ^ ^ ^ ^ ^         ^ ^ ^ ^
  (Slight stop inbetween each ^)

Riff 16

D|----------------------------------------------------------|
A|----------------------------------------------------------|
F|----------------------------------------------------------|
G|------------4-5-3-----------------------------------------|
C|2-2-2-2-2-2-2-3-1-2-2-2-2--5-4-----4-3-----3-2-----2-1----|
D|0-0-0-0-0-0-------0-0-0-0------5-4-----4-3-----3-2-----2-1|
   ^ ^ ^ ^ ^         ^ ^ ^ ^ . . . . . . . . . . . . . . . .
  (Slight stop inbetween each ^)

Riff 17 x3

D|---------------------------------------------------------------------|
A|---------------------------------------------------------------------|
F|---------------------------------------------------------------------|
G|---------------------------------------------------------------------|
C|--------------2222--------3333----444444444----333333--------2222----|
D|00000000111111----22222222----3333---------4444------33333333----2222|
 ...................................,,,,,,,,,....,,,,,,........,,,,....

Riff 18

D|--------------------------------------------|
A|--------------------------------------------|
F|--------------------------------------------|
G|------------5\4-4------------------------2-1|
C|------------3\2-2----------222-1-----2-1----|
D|33333333333-------33333333-------2-1--------|
  ...........       ........ ... . . . . . . .

Riff 19

D|------------------------------------------|
A|------------------------------------------|
F|------------------------------------------|
G|------------5\4-4----------5-4-----6-5----|
C|------------3\2-2--------------5-4-----6-5|
D|33333333333-------33333333----------------|
  ...........       ........ , , , , , , , ,

Riff 20

D|----------------------------------|
A|----------------------------------|
F|----------------------------------|
G|------------4-5-3-----------------|
C|2-2-2-2-2-2-2-3-1-2-2-2-2------2~~|
D|0-0-0-0-0-0-------0-0-0-0--1~~----|
   ^ ^ ^ ^ ^         ^ ^ ^ ^
  (Slight stop inbetween each ^)

Riff 21

D|------------------------------------------|
A|------------------------------------------|
F|------------------------------------------|
G|------------4-5-3-------------------------|
C|2-2-2-2-2-2-2-3-1-2-2-2-2--5-4-----4-3----|
D|0-0-0-0-0-0-------0-0-0-0------5-4-----4-3|
   ^ ^ ^ ^ ^         ^ ^ ^ ^ . . . . . . . .
  (Slight stop inbetween each ^)

Riff 22

D|----------------------------------|
A|----------------------------------|
F|----------------------------------|
G|------------4-5-3-----------------|
C|2-2-2-2-2-2-2-3-1-2-2-2-2------2~~|
D|0-0-0-0-0-0-------0-0-0-0--1~~----|
   ^ ^ ^ ^ ^         ^ ^ ^ ^
  (Slight stop inbetween each ^)

Riff 23

D|----------------------------------------------------------|
A|----------------------------------------------------------|
F|----------------------------------------------------------|
G|------------4-5-3-----------------------------------------|
C|2-2-2-2-2-2-2-3-1-2-2-2-2--5-4-----4-3-----3-2-----2-1----|
D|0-0-0-0-0-0-------0-0-0-0------5-4-----4-3-----3-2-----2-1|
   ^ ^ ^ ^ ^         ^ ^ ^ ^ . . . . . . . . . . . . . . . .
  (Slight stop inbetween each ^)

Riff 24 x2
                                                      ph- ph-
D|-----------------------------------------------------------|
A|--------------------------------------------------------3-2|
F|--------------------------3-2-----------------------4-3----|
C|----------------------4-3-----------------------5-4--------|
G|2--2-2-2--2-2-----5-4---------5--5-5-5--5-5-5-4------------|
D|0--0-0-0--0-0-5-4-------------3--3-3-3--3-3----------------|
     . .    . . . . . . . . . .    . .    . . . . . . . . . .

Riff 25

D|--------------------------------------------------|
A|--------------------------------------------------|
F|--------------------------------------------------|
C|----------------------------4--------------3~~~---|
G|3--3-2----2-2-3--3-2----2-2-2-2-4--4-4-5-------2-2|
D|1--1-0----0-0-1--1-0----0-0-----2--2-2-3-3-----0-0|
     .      . .    .      . .   x    . .   x     . .

Riff 26

D|-----------------------------------------------|
A|-----------------------------------------------|
F|-----------------------------------------------|
C|----------------------------4--------------3~~~|
G|3--3-2----2-2-3--3-2----2-2-2-2-4--4-4-5-------|
D|1--1-0----0-0-1--1-0----0-0-----2--2-2-3-3-----|
     .      . .    .      . .   x    . .   x

Riff 27 (End riff)

D|---------------|
A|---------------|
F|---------------|
C|---------------|
G|2========2--2-2|
D|0========0--0-0|

  Visit MetalTabs.com for more metal tablature

bottom separator

Contact Us | Privacy Policy | Disclaimer | Legal Notice
Copyright © 2001-2014 MetalTabs.com. All Rights Reserved.