top separator

Home

Forum

What's New

Submit a Tab

FAQ

Links

Contact Us

Link to Us

MuSpy.com

MetalTabs.com logo

Bands

0-9

A

B

C

D

E

F

G

H

I

J

K

L

M

N

O

P

Q

R

S

T

U

V

W

X

Y

Z

Search

What

Where
 

Electric Wizard - "The Sun Has Turned To Black" Guitar Tab

Plain Text Version
More Electric Wizard Tabs

Hits: 6153
Rated: 4.70 out of 5 (10 votes)
Updated: 2005-09-13 07:01:35

 

By:

sendpm.gif

email.gif

Important note
This tab is available online because we obtained explicit permission from Electric Wizard or their label.


#----------------------------------PLEASE NOTE---------------------------------#
#This file is the author's own work and represents their interpretation of the #
#song. You may only use this file for private study, scholarship, or research. #
#Unless specified otherwise, this is NOT an official tab from the band members.#
#------------------------------------------------------------------------------#

  Visit MetalTabs.com for more metal tablature
  
Band:  Electric Wizard
Album: We Live
Song:  The Sun Has Turned To Black

Copyright (c)  Rise Above Records 2004

Transcribed By: murv
Email:          crescendo_of_craving@hotmail.com

Tuning C F A# D# G C

  bu bend up to

C |--------------------------------|
G |--------------------------------|
D#|--------------------------------|
A#|--------------------------------|
F |--7--7--7--3-3--10101010101010--|
C |--5--5--5--1-1--8-8-8-8-8-8-8---|x4


C |----------------------------------------------------------|
G |----------------------------------------------------------|
D#|----------------------------------------------------------|
A#|----------------------------------------------------------|
F |--7--7--7--7-7--7-7--7-7-7-7-7--7--7--7-7---10-10-10bu12--|
C |--5--5--5--5-5--5-5--5-5-5-5-5--5--5--5-5--8--8--8--------|x2


C |--------------------------------------------------------|
G |--------------------------------------------------------|
D#|---------------------------7--7-7-7-7-7--10-1010101010--|
A#|---------------------------5--5-5-5-5-5--8--8-8-8-8-8---|
F |--7--7-7-7-7--10-10101010-------------------------------|
C |--5--5-5-5-5--8--8-8-8-8--------------------------------|


C |--------------------------------|
G |--------------------------------|
D#|--------------------------------|
A#|--------------------------------|
F |--7--7--7--3-3--10101010101010--|
C |--5--5--5--1-1--8-8-8-8-8-8-8---|x4


C |----------------------------------------------------------|
G |----------------------------------------------------------|
D#|----------------------------------------------------------|
A#|----------------------------------------------------------|
F |--7--7--7--7-7--7-7--7-7-7-7-7--7--7--7-7---10-10-10bu12--|
C |--5--5--5--5-5--5-5--5-5-5-5-5--5--5--5-5--8--8--8--------|x2


C |--------------------------------------------------------|
G |--------------------------------------------------------|
D#|---------------------------7--7-7-7-7-7--10-1010101010--|
A#|---------------------------5--5-5-5-5-5--8--8-8-8-8-8---|
F |--7--7-7-7-7--10-10101010-------------------------------|
C |--5--5-5-5-5--8--8-8-8-8--------------------------------|


C |--------------------------------|
G |--------------------------------|
D#|--------------------------------|
A#|--------------------------------|
F |--7--7--7--3-3--10101010101010--|
C |--5--5--5--1-1--8-8-8-8-8-8-8---|x4

C |------------------|
G |------------------|
D#|---7bu9--7-7-5-5--|
A#|------------------|
F |------------------|
C |------------------|x4


C |----------------------------------------------------------|
G |----------------------------------------------------------|
D#|----------------------------------------------------------|
A#|----------------------------------------------------------|
F |--7--7--7--7-7--7-7--7-7-7-7-7--7--7--7-7---10-10-10bu12--|
C |--5--5--5--5-5--5-5--5-5-5-5-5--5--5--5-5--8--8--8--------|x2


C |--------------------------------------------------------|
G |--------------------------------------------------------|
D#|---------------------------7--7-7-7-7-7--10-1010101010--|
A#|---------------------------5--5-5-5-5-5--8--8-8-8-8-8---|
F |--7--7-7-7-7--10-10101010-------------------------------|
C |--5--5-5-5-5--8--8-8-8-8--------------------------------|


C |--------------------------------|
G |--------------------------------|
D#|--------------------------------|
A#|--------------------------------|
F |--7--7--7--3-3--10101010101010--|
C |--5--5--5--1-1--8-8-8-8-8-8-8---|x8

End on
C |-----
G |-----
D#|-----
A#|-----
F |--7--
C |--5--

  Visit MetalTabs.com for more metal tablature

bottom separator

Contact Us | Privacy Policy | Disclaimer | Legal Notice
Copyright © 2001-2014 MetalTabs.com. All Rights Reserved.