top separator

Home

Forum

What's New

Submit a Tab

FAQ

Links

Contact Us

Link to Us

MuSpy.com

MetalTabs.com logo

Bands

0-9

A

B

C

D

E

F

G

H

I

J

K

L

M

N

O

P

Q

R

S

T

U

V

W

X

Y

Z

Search

What

Where
 

Graveworm - "Portrait Of A Deadly Nightshade" Guitar Tab

Plain Text Version
More Graveworm Tabs

Hits: 3203
Rated: 4.00 out of 5 (2 votes)
Updated: 2005-09-13 06:50:52

 

By:

Theoldman

sendpm.gif

email.gif

Important note
This tab is available online because we obtained explicit permission from Graveworm or their label.


#----------------------------------PLEASE NOTE---------------------------------#
#This file is the author's own work and represents their interpretation of the #
#song. You may only use this file for private study, scholarship, or research. #
#Unless specified otherwise, this is NOT an official tab from the band members.#
#------------------------------------------------------------------------------#

  Visit MetalTabs.com for more metal tablature
  
Band:  Graveworm
Album: As The Angels Reach The Beauty
Song:  Portrait Of A Deadly Nightshade

Copyright (c)  Last Episode 1999
Version 1.0 -  11.8.2005

Transcribed By: theoldman
Email:          swordbearing@hotmail.com
________________________________________

.  - palm mute           /  - slide up to
\  - slide down to       ~  - vibrato
h  - hammer on           b  - Bend
p  - pull off            Suffixes for bend
t  - tap                 f  - full bend    h - half bend
ph - pinched harmonic    q  - quarter bend t - tap bend
*  - see comment         ^  - Hold bend    r release bend
x  - Stuccatto           ~  - vibrato bend
,  - slight palm mute    () - ghost note, sustained note
"  - tremolo note        <> - Trill

Tuning D G C F A D

Riff 1 (0:00-0:47)
|---------------------------|-----------------------------|
|---------------------------|-----------------------------|
|---------------------------|-----------------------------|
|4---------4---2------------|4---------4---2--------------|
|2---------2---0------------|2---------2---0------0-0-0-0-|
|---------------------------|-----------------------------|
                                                  . . . .
|---------------------------|
|---------------------------|
|---------------------------|
|---------------------------|
|5-------------4------------|
|3-------------2------------|



Riff 2 (0:48)
|------------|
|------------|
|------------|
|------------|
|5-----------|
|3-----------|



Riff 3 (0:48-1:35)
|----------------------------------------------------------------------|
|----------------------------------------------------------------------|
|----------------------------------------------------------------------|
|----------------------------------------------------------------------|
|22222222-44444444-5555555555555555-77777777-55555555-4444444444444444-|
|----------------------------------------------------------------------|



Riff 4 (0:56-1:35)
|----------------------------------------------------------------------|
|----------------------------------------------------------------------|
|----------------------------------------------------------------------|
|----------------------------------------------------------------------|
|----------------------------------------------------------------------|
|3333333333333333333333333333333333-2222222222222222222222222222222222-|
 .................................. ..................................



Riff 5 (1:36-1:38)
|--------------|
|--------------|
|--------------|
|--------------|
|5------7------|
|3------5------|



Riff 6 (1:39-2:10)
|------------------------------------------------------|
|------------------------------------------------------|
|------------------------------------------------------|
|4-------------------------4---------------------------|
|2------------2------------2------7---5---4------------|
|-------------0-------------------5---3---2------------|



Riff 7 (2:11)
|------------|
|------------|
|------------|
|------------|
|2-----------|
|0-----------|



Riff 4 (2:43-3:14)



Riff 8 (3:15-3:30)
|------------------------------------------------------------|
|------------------------------------------------------------|
|------------------------------------------------------------|
|--------------------------------------4---------------------|
|5-----5---5-----5---5-----5---5-----5-2---------------------|
|3-33333---3-33333---3-33333---3-33333-----------------------|
   ....      ....      ....      ....



Riff 4 (3:31-4:10)



END

  Visit MetalTabs.com for more metal tablature

bottom separator

Contact Us | Privacy Policy | Disclaimer | Legal Notice
Copyright © 2001-2014 MetalTabs.com. All Rights Reserved.