top separator

Home

Forum

What's New

Submit a Tab

FAQ

Links

Contact Us

Link to Us

MetalTabs.com logo

Bands

0-9

A

B

C

D

E

F

G

H

I

J

K

L

M

N

O

P

Q

R

S

T

U

V

W

X

Y

Z

Search

What

Where
 

Crowbar - "Fixation" Guitar Tab

Plain Text Version
More Crowbar Tabs

Hits: 3692
Rated: 5.00 out of 5 (1 vote)
Updated: 2005-09-01 16:15:49

 

By:

Father Death

sendpm.gif

email.gif

Important note
This tab is available online because we obtained explicit permission from Crowbar or their label.


#----------------------------------PLEASE NOTE---------------------------------#
#This file is the author's own work and represents their interpretation of the #
#song. You may only use this file for private study, scholarship, or research. #
#Unless specified otherwise, this is NOT an official tab from the band members.#
#------------------------------------------------------------------------------#

  Visit MetalTabs.com for more metal tablature
  
Band:  CROWBAR
Album: Crowbar
Song:  Fixation

Transcribed by: Chris Humeniuk
Email:  father_death_666@hotmail.com

Tuning: 2.5 steps down (B)

Keys:
 ___ - palm mute
 / \ - slide
  b  - bend
  r  - release bend


INTRO:

|--------------------------------------------------------|
|--------------------------------------------------------|
|--------------------------------------------------------|
|-4-5-----9\8-9---------------4-5-----9\8-9--------------|
|-4-5-5-5-7\6-7---------------4-5-5-5-7\6-7--------------|
|-2-3-3-3-7\6-7-0-6-5-3-5--3--2-3-3-3-7\6-7-0-6-5-3-/8~--| 2x
      ___                          ___


FILL:

|-----------------------------|
|-----------------------------|
|-----------------------------|
|-2--2-2--------2--2-2--------|
|-2--2-2--------2--2-2--------|
|-0--0-0--------0--0-0--------|


VERSE:

|---------------------------------------------|
|---------------------------------------------|
|---------------------------------------------|
|-2--2-2--------------10--10-10--8---7---7--9-|
|-2--2-2---------------8---8--8--8---7---5--7-|
|-0--0-0--/8~--7br~----8---8--8--6---5---5--7-| 8x


RIFF A:

|------------------------------|
|------------------------------|
|------------------------------|
|---------3--------------3--5--|
|-2-2-2-2-3--2-2-2-2-----3--5--|
|-0-0-0-0-1--0-0-0-0-1br-1--3--| 4x
  _______    _______


VERSE - 4x


RIFF A - 4x


INTERLUDE:

|------------------------------------------------------------|
|------------------------------------------------------------|
|-------------------------3----------------------------------|
|-2-----------------------3----2-----------------------8-7-\-|
|-2-----------------------1----2-----------------------8-7-\-|
|-0---0-5-3-/10~--10~--00-1----0---0-5-3-/10~--10~--00-6-5-\-| 4x
                       __                           __


OUTRO:

|--------------------------------------------------------------
|--------------------------------------------------------------
|--------------------------------------------------------------
|-3--4------3------3------3\2-3--4------3------3\2-9--8--8--7--
|-1--2--1-1-1--1-1-1--1-1-1\0-1--2--1-1-1--1-1-1\0-7--6--8--7--
|-------0-0----0-0----0-0-----1--2--0-0----0-0-----7--6--6--5--
        ___    ___    ___           ___    ___

 --------------------------------------------------------|
 --------------------------------------------------------|
 --------------------------------------------------------|
 -3--4------3------3------3\2-3--4------3------3\2-9--8--|
 -1--2--1-1-1--1-1-1--1-1-1\0-1--2--1-1-1--1-1-1\0-7--6--|
 -------0-0----0-0----0-0-----1--2--0-0----0-0-----7--6--| 2x
        ___    ___    ___           ___    ___

|--------------------------------------------------------------|
|--------------------------------------------------------------|
|--------------------------------------------------------------|
|-3--4------3------3------3\2-3--4------3------3\2-9--8--8--7--|
|-1--2--1-1-1--1-1-1--1-1-1\0-1--2--1-1-1--1-1-1\0-7--6--8--7--|
|-------0-0----0-0----0-0-----1--2--0-0----0-0-----7--6--6--5--|
        ___    ___    ___           ___    ___

|-------------------------|
|-------------------------|
|-------------------------|
|-2--2-2--------2--2------|
|-2--2-2--------2--2-/7~--|
|-0--0-0--------0--0------|

  Visit MetalTabs.com for more metal tablature

bottom separator

Contact Us | Privacy Policy | Disclaimer | Legal Notice
Copyright © 2001-2014 MetalTabs.com. All Rights Reserved.