top separator

Home

Forum

What's New

Submit a Tab

FAQ

Links

Contact Us

Link to Us

MetalTabs.com logo

Bands

0-9

A

B

C

D

E

F

G

H

I

J

K

L

M

N

O

P

Q

R

S

T

U

V

W

X

Y

Z

Search

What

Where
 

Sodom - "Iron Fist" Bass Tab

Plain Text Version
More Sodom Tabs

Hits: 4606
Rated: 1.00 out of 5 (1 vote)
Updated: 2005-09-01 16:15:13

 

By:

Sodomaniac

sendpm.gif

email.gif

Important note
This tab is available online because we obtained explicit permission from Sodom or their label.


#----------------------------------PLEASE NOTE---------------------------------#
#This file is the author's own work and represents their interpretation of the #
#song. You may only use this file for private study, scholarship, or research. #
#Unless specified otherwise, this is NOT an official tab from the band members.#
#------------------------------------------------------------------------------#

  Visit MetalTabs.com for more metal tablature
  
Band: Sodom
Album: Persecution Mania
Song: Iron Fist (Motörhead Cover)

Transcribed By: sodomaniac
Email: torbenauras@aol.com


Riff 1:
G-------------------------------------|
D--2--2-2-2-2--2--2-2-2-2--1----------|
A------------------------------3---0--|
E-------------------------------------|


Riff 2:
G--------------------------------------------------
D--2--2-2-2-2--2--2-2-2-2--2--2-2-2-2--2--2-2-2-2--
A--------------------------------------------------
E--------------------------------------------------

G-------------------------------------|
D--2--2-2-2-2--2--2-2-2-2--1----------|
A------------------------------3---0--|
E-------------------------------------|


Riff 3:
G--------------------------------------------------
D--0--0-0-0-0--------------2--2-2-2-2--------------
A--------------1--1-1-1-1--------------3--3-3-3-3--
E--------------------------------------------------

G---------------------------------------|
D--0--0-0-0-0--------------2-2-2--------|
A--------------1--1-1-1-1--------3-3-3--|
E---------------------------------------|


Riff 4:
G--------------------------------------|
D--2--2-2-2-2--2--2-2-2-2--2--2-2-2-2--|
A--------------------------------------|
E--------------------------------------|


Riff 5
G----------------------------------------|
D--2/5--5-5-5-5--5--5-5-5-5--5--5-5-5-5--|
A----------------------------------------|
E----------------------------------------|


Riff 6 (Outro)
G----------------------------------------------------------|
D--2--2--0----2--2--0----2--2--0----2--2--0---------1------|
A-----------------------------------------------------3-0--|
E----------------------------------------------------------|




Order:
Start playing at 0:06

Riff 1 x4
Riff 2 x2
Riff 3 x1
Riff 2 x3
Riff 3 x1
Riff 4 x4  \
Riff 5 x1   | during guitar solo
Riff 3 x1  /
Riff 2 x3
Riff 3 x1
Riff 4 x5
Riff 3 x1
Riff 6 x1

  Visit MetalTabs.com for more metal tablature

bottom separator

Contact Us | Privacy Policy | Disclaimer | Legal Notice
Copyright © 2001-2014 MetalTabs.com. All Rights Reserved.