top separator

Home

Forum

What's New

Submit a Tab

FAQ

Links

Contact Us

Link to Us

MuSpy.com

MetalTabs.com logo

Bands

0-9

A

B

C

D

E

F

G

H

I

J

K

L

M

N

O

P

Q

R

S

T

U

V

W

X

Y

Z

Search

What

Where
 

Vintersorg - "Blindsight Complexity" Guitar Tab

Plain Text Version
More Vintersorg Tabs

Hits: 2018
Rated: 5.00 out of 5 (2 votes)
Updated: 2005-09-01 16:06:30

 

By:

Otiz

sendpm.gif

email.gif

Important note
This tab is available online because we obtained explicit permission from Vintersorg or their label.


#----------------------------------PLEASE NOTE---------------------------------#
#This file is the author's own work and represents their interpretation of the #
#song. You may only use this file for private study, scholarship, or research. #
#Unless specified otherwise, this is NOT an official tab from the band members.#
#------------------------------------------------------------------------------#

  Visit MetalTabs.com for more metal tablature
  
Song: Blindsight Complexity
Artist: Vintersorg
Album: The Focusing Blur

Tabbed by Finnbogi the Icelander (otiz@d10.is)

Standard tuning (EADGBe)
Slide = / \
PM = Palm Mute
" = Tremolo
h = Hammer-on
p = Pull-off

Riff 1
Guitar I (left)
e |-------------------------------------------------|
B |-------------------------------------------------|
G |-------------------------------------------------|
D |-----------12\9-9--------------------------------|
A |-10\7-7-7--10\7-7--9-10\7-7-7--0-2-3-------------|
E |-8-\5-5-5----------7-8-\5-5-5--------3-0---------|
PM|                              . . . .            |
  |                                                 |
e |-------------------------------------------------|
B |-------------------------------------------------|
G |-------------------------------------------------|
D |-----------12\9-9--------------------------------|
A |-10\7-7-7--10\7-7-7-7h8--7/5---5h7-7--7----------|
E |-8-\5-5-5--------------------8-------------------|

Guitar II (right)
e |-----------0----0--------------------------------|
B |-5----5----3----3----5----5----------------------|
G |-0----0----2----2----0----0----5----5------------|
D |-2----2----3----3----2----2----x----x------------|
A |-------------------------------3----3------------|
E |-------------------------------------------------|
  |                                                 |
e |-------------------------------------------------|
B |-------------------------------------------------|
G |-7----7-----9---------------------7-9-10-9-------|
D |-x-------------6--7-6-7-9-10-9-10----------------|
A |-5-------0---------------------------------------|
E |-------------------------------------------------|
PM                   . . . . . .

Guitar I (left)
e |-------------------------------------------------|
B |-------------------------------------------------|
G |-------------------------------------------------|
D |-----------12\9-9--------------------------------|
A |-10\7-7-7--10\7-7--9-10\7-7-7--0-2-3-------------|
E |-8-\5-5-5----------7-8-\5-5-5--------3-0---------|
PM|                              . . . .            |
  |                                                 |
e |-------------------------------------------------|
B |-------------------------------------------------|
G |-------------------------------------------------|
D |-----------12\9-9--------------------------------|
A |-10\7-7-7--10\7-7-7-7h8--7/5---5h7-7--7----------|
E |-8-\5-5-5--------------------8-------------------|

Guitar II (right)
e |-----------0----0--------------------------------|
B |-5----5----3----3----5----5----------------------|
G |-0----0----2----2----0----0----5----5------------|
D |-2----2----3----3----2----2----x----x------------|
A |-------------------------------3----3------------|
E |-------------------------------------------------|
  |                                                 |
e |-------------------------------------------------|
B |-------------------------------------------------|
G |-7----7-----9------------------------------------|
D |-x-------------6--7-6----------------------------|
A |-5-------0------------7-5------------------------|
E |--------------------------8-7--------------------|
PM                       . . . .

Riff 1 w/ singing (some variations and rythmic changes)
Guitar I (left)
e |-------------------------------------------------|
B |-------------------------------------------------|
G |-------------------------------------------------|
D |-----------12\9-9--------------------------------|
A |-10\7-7-7--10\7-7--9-10\7-7-7--0-2-3-------------|
E |-8-\5-5-5----------7-8-\5-5-5--------3-0---------|
PM|                              . . . .            |
  |                                                 |
e |-------------------------------------------------|
B |-------------------------------------------------|
G |-------------------------------------------------|
D |-----------12\9-9---7----------------------------|
A |-10\7-7-7--10\7-7-7----8-7----5/7-7--7-----------|
E |-8-\5-5-5------------------8------------8-8-5--0-|
PM                                         . .

Guitar II (right)
e |-------------------------------------------------|
B |-------------------------------------------------|
G |-------------------------------------------------|
D |-------------------------------------------------|
A |-7--------7-----7--5-7---------------------------|
E |-5--8-7-0-5-7-8--------8-7-----------------------|
PM|                   . . .                         |
  |                                                 |
e |-------------------------------------------------|
B |-------------------------------------------------|
G |-------------------------------------------------|
D |-------------------------------------------------|
A |-7--------7-----7--5-7---------------------------|
E |-5--8-7-0-5-7-8--------8-7--------------8-8-5--0-|
PM                    . . .                . .

Guitar I (left)
e |-------------------------------------------------|
B |-------------------------------------------------|
G |-------------------------------------------------|
D |-----------12\9-9--------------------------------|
A |-10\7-7-7--10\7-7--9-10\7-7-7--0-2-3-------------|
E |-8-\5-5-5----------7-8-\5-5-5--------3-0---------|
PM|                              . . . .            |
  |                                                 |
e |-------------------------------------------------|
B |-------------------------------------------------|
G |-------------------------------------------------|
D |--------------------7----------------------------|
A |-10\7-7-7--777777777---8-7----5/7-7--7-----------|
E |-8-\5-5-5--555777888-------8------------8-8-5--0-|
PM            .........                    . .

Guitar II (right)
e |-------------------------------------------------|
B |-------------------------------------------------|
G |-------------------------------------------------|
D |-------------------------------------------------|
A |-7--------7-----7--5-7---------------------------|
E |-5--8-7-0-5-7-8--------8-7-----------------------|
PM|                   . . .                         |
  |                                                 |
e |-------------------------------------------------|
B |-------------------------------------------------|
G |-------------------------------------------------|
D |-------------------------------------------------|
A |-7--------777999101010-7--5-7--------------------|
E |-5--8-7-0-5557778-8-8--------8-7--------8-8-5--0-|
PM                           . . .         . .


Riff 2
Guitar I (left)
e |-------------------------------------------------|
B |-------------------------------------------------|
G |-------------------------------------------------|
D |-6-/-7-----9-/-10-----6-/-7-----10-/-11-8--------|
A |-x---------x----------x---------x-------x--------|
E |-4-/-5-0-0-7-/-8--0-0-4-/-5-0-0-8--/-9--6--------|
PM|       . .        . .       . .                  |
  |                                                 |
e |-------------------------------------------------|
B |-------------------------------------------------|
G |-------------------------------------------------|
D |-6-/-7-9-/-10--10-10-\-7-7-7--10-10-\-6-6-6------|
A |-x-----x-------x--x------x-x--x--x------x-x------|
E |-4-/-5-7-/-8---8--8--\-5-5-5--8--8--\-4-4-4------|


Guitar II (right)
e |-------------------------------------------------|
B |-9-/-10---12-/-13-----9-/-10----13-/-14-11-------|
G |-x--------x-----------x---------x-------x--------|
D |-6-/-7----9--/-10-----6-/-7-----10-/-11-8--------|
A |-------------------------------------------------|
E |-------------------------------------------------|
  |                                                 |
e |-------------------------------------------------|
B |-9-/-10-12-/-13--13-13-\-10-10-10-13-13-\-9-9-9--|
G |-x------x--------x--x-------x--x--x--x------x-x--|
D |-6-/-7--9--/-10--10-10-\-7--7--7--10-10-\-6-6-6--|
A |-------------------------------------------------|
E |-------------------------------------------------|

Guitar I (left)
e |-------------------------------------------------|
B |-------------------------------------------------|
G |-------------------------------------------------|
D |-6-/-7-----9-/-10-----6-/-7-----10-/-11-8--------|
A |-x---------x----------x---------x-------x--------|
E |-4-/-5-0-0-7-/-8--0-0-4-/-5-0-0-8--/-9--6--------|
PM|                                                 |
  |                                                 |
e |-------------------------------------------------|
B |-------------------------------------------------|
G |-------------------------------------------------|
D |-6-/-7-9-/-10--10-10-\-7-7-7--5-7----------------|
A |-x-----x-------x--x------x-x--x-x----------------|
E |-4-/-5-7-/-8---8--8--\-5-5-5--3-5----------------|

Guitar II (right)
e |-------------------------------------------------|
B |-9-/-10---12-/-13-----9-/-10----13-/-14-11-------|
G |-x--------x-----------x---------x-------x--------|
D |-6-/-7----9--/-10-----6-/-7-----10-/-11-8--------|
A |-------------------------------------------------|
E |-------------------------------------------------|
  |                                                 |
e |-------------------------------------------------|
B |-9-/-10-12-/-13--13-13-\-10-10-10--8-10----------|
G |-x------x--------x--x-------x--x---x-x-----------|
D |-6-/-7--9--/-10--10-10-\-7--7--7---5-7-----------|
A |-------------------------------------------------|
E |-------------------------------------------------|


Riff 3
Guitar I (left)
e |-------------------------------------------------|
B |-------------------------------------------------|
G |-------------------------------------------------|
D |-------------------------------------------------|
A |-8"----------10"---------7"------7"-8------------|
E |-------------------------------------------------|
  |                                                 |
  |                                                 |
e |-------------------------------------------------|
B |-------------------------------------------------|
G |-------------------------------------------------|
D |------------------------------2------------------|
A |-8"----------10"--------0-0-3---------0-0-2-3----|
E |-------------------------------------------------|
PM                         . . .    . . .

Guitar II (right)
e |-------------------------------------------------|
B |-------------------------------------------------|
G |-------------------------------------------------|
D |-6"-7"---9"-10"---6"-7"---10"--11"--8------------|
A |-------------------------------------------------|
E |-------------------------------------------------|
  |                                                 |
e |-------------------------------------------------|
B |-----------------13-13-\-10-10-10-13-13-\-9-9-9--|
G |-----------------x--x-------x--x--x--x------x-x--|
D |-6"-7"-9"-10"----10-10-\-7--7--7--10-10-\-6-6-6--|
A |-------------------------------------------------|
E |-------------------------------------------------|

Guitar I (left)
e |-------------------------------------------------|
B |-------------------------------------------------|
G |-------------------------------------------------|
D |-------------------------------------------------|
A |-8"----------10"---------7"------7"-8------------|
E |-------------------------------------------------|
  |                                                 |
  |                                                 |
e |-------------------------------------------------|
B |-------------------------------------------------|
G |-------------------------------------------------|
D |------------------------------2---0---2----------|
A |-8"----------10"--------0-0-3--------------------|
E |-------------------------------------------------|
PM                         . . .

Guitar II (right)
e |-------------------------------------------------|
B |-------------------------------------------------|
G |-------------------------------------------------|
D |-6"-7"---9"-10"---6"-7"---10"--11"--8------------|
A |-------------------------------------------------|
E |-------------------------------------------------|
  |                                                 |
e |-------------------------------------------------|
B |-----------------13-13-\-10-10-10--8--10---------|
G |-----------------x--x-------x--x---x--x----------|
D |-6"-7"-9"-10"----10-10-\-7--7--7---5--7----------|
A |-------------------------------------------------|
E |-------------------------------------------------|


Riff 4
Guitar I (left)
e |-------------------------------------------------|
B |---------1-----------0------------1--------------|
G |-----2-----------0------------2------------------|
D |-3-----------3------------3----------------------|
A |-------------------------------------------------|
E |-------------------------------------------------|
  |                                                 |
  |                                                 |
e |-10--10-10--8-5--5-5--5--5-5--5--5-5-------------|
B |-10--10-10--8-5--5-5--5--5-5--5--5-5-------------|
G |-10--10-10----5--5-5--5--5-5--5--5-5-------------|
D |----------------------7--7-7--7--7-7-------------|
A |----------------------0--0-0--0--0-0-------------|
E |-------------------------------------------------|

Guitar II (right) almost nothing there but this might
			be it and if it isn't it still fits.
e |-------------------------------------------------|
B |-1--1--1---0--0--0---1---1--1-----not the--------|
G |-2--2--2---0--0--0---2---2--2---exact strum------|
D |-3--3--3---3--3--3---3---3--3-----rythm,---------|
A |-3--3--3---2--2--2---3---3--3---just wrote-------|
E |-1--1--1---1--1--1---1---1--1----something.------|
PM|                                                 |
  |                                                 |
e |-------------------------------------------------|
B |-------------------------------------------------|
G |-------------------------------------------------|
D |-------------------------------------------------|
A |-------------------------------------------------|
E |-------------------------------------------------|

Riff 1 - 3 again.

Riff 5
Guitar I (left)
e |-------------------------------------------------|
B |-------------------------------------------------|
G |-----------7-------------------------------------|
D |-2---------7---------7---------------------------|
A |-2---------5---------7--------/8-7-5-------------|
E |-0-0-0-0-0---0-0-0-0-5-0-0-0-0-------------------|
PM|   . . . .   . . . .   . . . .                   |
  |                                                 |
e |-------------------------------------------------|
B |-------------------------------------------------|
G |-------------------------------------------------|
D |------------------------/10----9-----------------|
A |------8-------7----------------------------------|
E |-10-------8--------0-0---------------------------|
PM                    . .

Guitar II (right)
e |-7-/-10-10--10-10-10-\-5-5------0-0--------------|
B |-8-/-11-11--11-11-11-\-6-6--3/5-5---5----3/5--3--|
G |-9-/-12-12--12-12-12-\-7-7--3/5-5-----5--5/7--5--|
D |----------------------------x------------5/7--5--|
A |-7-/-10-10--10-10-10-\-5-5--1/3----------3/5--3--|
E |-------------------------------------------------|
PM|                                                 |
  |                                                 |
e |-------5-----------5-/-8----10-10-10-10----------|
B |-6---8---8--6--5---5-/-8----10-10-10-10----------|
G |-------------------------------------------------|
D |-------------------------------------------------|
A |-------------------------------------------------|
E |-------------------------------------------------|

  Visit MetalTabs.com for more metal tablature

bottom separator

Contact Us | Privacy Policy | Disclaimer | Legal Notice
Copyright © 2001-2014 MetalTabs.com. All Rights Reserved.