top separator

Home

Forum

What's New

Submit a Tab

FAQ

Links

Contact Us

Link to Us

MuSpy.com

MetalTabs.com logo

Bands

0-9

A

B

C

D

E

F

G

H

I

J

K

L

M

N

O

P

Q

R

S

T

U

V

W

X

Y

Z

Search

What

Where
 

Devil to Pay - "tractor fuckin' trailer" Guitar Tab

Plain Text Version
More Devil to Pay Tabs

Hits: 1692
Rated: 5.00 out of 5 (1 vote)
Updated: 2005-09-01 15:47:19

 

By:

sendpm.gif

email.gif

Important note
This tab is available online because we obtained explicit permission from Devil to Pay or their label.


#----------------------------------PLEASE NOTE---------------------------------#
#This file is the author's own work and represents their interpretation of the #
#song. You may only use this file for private study, scholarship, or research. #
#Unless specified otherwise, this is NOT an official tab from the band members.#
#------------------------------------------------------------------------------#

  Visit MetalTabs.com for more metal tablature
  
Band:  Devil To Pay
Album: Thirty Pieces Of Silver
Song:  Tractor Fuckin' Trailer

Copyright (c)  Benchmark Records 2004
Version 1.0 - 03/08/05

Transcribed By: Marcus Horsley
Email:          gilthaer@stonerrock.net


.  - palm mute           /  - slide up to
\  - slide down to       ~  - vibrato
h  - hammer on           b  - Bend
p  - pull off            Suffixes for bend
t  - tap                 f  - full bend    h - half bend
ph - pinched harmonic    q  - quarter bend t - tap bend
*  - see comment         ^  - Hold bend    r release bend
x  - Stuccatto           ~  - vibrato bend
,  - slight palm mute    () - ghost note, sustained note
"  - tremolo note        <> - Trill

Tuning C G C F A D

Intro Riff

|-------------------------------------------------------------------|
|-------------------------------------------------------------------|
|-------------------------------------------------------------------|
|-------------------------------------------------------------------|
|-----------3--5-----3--------------------3--5-----3----------------|
|--0--0--0--------5-----5--3~----0--0--0--------3-----5--3~---------|

   .  .  .                       .  .  .


Verse Riff

|-------------------------------------------------------------------|
|-------------------------------------------------------------------|
|-------------------------------------------------------------------|
|-------------------------------------------------------------------|
|-----------3--5-----3--------------------3--5-----3----------------|
|--0--0--0--------5-----5--3~----0--0--0--------3-----5--3~---------|

   .  .  .  .  .  .  .  .  .     .  .  .  .  .  .  .  .  .


Chorus Riff

|-------------------------------------------------------------------|
|-------------------------------------------------------------------|
|-------------------------------------------------------------------|
|-------------------------------------------------------------------|
|-------------------------------------------------------------------|
|--0--0--0--3b--0--0--3b--0--3--4--5--4--3--------------------------|


Bridge

|-------------------------------------------------------------------|
|-------------------------------------------------------------------|
|-------------------------------------------------------------------|
|--5--3----------------------------5--3-----------------------------|
|--------5--3----------------------------5--3-----------------------|
|--------------5--4--3--3--3--1~----------------5--4--3--3--3--1~---|

Outro

|-------------------------------------------------------------------|
|-------------------------------------------------------------------|
|-------------------------------------10b---------------------------|
|-------------------------------------------------------------------|
|-------------------------------------------------------------------|
|--0--0--0--3~--0--0--0--3~--0--0--0-------0--0--0-3~---------------|

Listen to the song and you should get the feel for it.

For the Solo some improv. around C blues with a wah pedal works perfect.

Any questions or improvements. Mail me.

Gilthaer

END

  Visit MetalTabs.com for more metal tablature

bottom separator

Contact Us | Privacy Policy | Disclaimer | Legal Notice
Copyright © 2001-2014 MetalTabs.com. All Rights Reserved.