top separator

Home

Forum

What's New

Submit a Tab

FAQ

Links

Contact Us

Link to Us

MuSpy.com

MetalTabs.com logo

Bands

0-9

A

B

C

D

E

F

G

H

I

J

K

L

M

N

O

P

Q

R

S

T

U

V

W

X

Y

Z

Search

What

Where
 

Lykathé - "To Become Shelter And Salvation" Guitar Tab

Plain Text Version
More Lykathé Tabs

Hits: 3434
Rated: 5.00 out of 5 (2 votes)
Updated: 2005-09-01 15:46:19

 

By:

Cloaca

sendpm.gif

email.gif

Important note
We did our best to reach Lykathé and ask for their permission to publish this tab. Unfortunately they did not respond to our requests or we could not find a way to contact them. This tab is available online until Lykathé tells us to take it down.


#----------------------------------PLEASE NOTE---------------------------------#
#This file is the author's own work and represents their interpretation of the #
#song. You may only use this file for private study, scholarship, or research. #
#Unless specified otherwise, this is NOT an official tab from the band members.#
#------------------------------------------------------------------------------#

  Visit MetalTabs.com for more metal tablature
  
Lykathea Aflame - 'To Become Shelter And Salvation'
Elvenefris (2000)
Obscene Productions

Tabbed by Tim Snowsill (Tim_Snowsill@hotmail.com)
05/07/05

RIVERS OF GORE TABS - www.geocities.com/psychobrien1983

________________________________________________________________________________
Tab Rhythm is hardly perfect so listen to CD. Any comments or corrections can be
e-mailed to above address.

________________________________________________________________________________

Words and Music by Ptoe
Arranged by Lykathea Aflame

Gtr I (Db Gb B E Ab Db) - 'Ptoe'
Gtr II (Db Gb B E Ab Db) - 'Ondra Martinek'
Gtr III*** (B Gb B E Ab Db) - 'Acoustic Guitar'
Gtr IV (Db Gb B E Ab Db) - 'Keyboards'

 Riff 1 (0:00)
  Q=180
 4/4
  Gtr III
  E Q  E E E Q    Q  E E Q  E E   E Q  E E E E   E    Q  E E Q  E E
|---------------|---------------|-------------------|----------------|
|---------------|---------------|-------------------|----------------|
|---------------|---------------|-------------------|----------------|
|---0----0---0--|------0------0-|---0----0---0------|----------------|
|---------------|-0--0---0--0---|-------------------|------7------7--|
|-0----0---0----|---------------|-0----0---0---/(7)-|-7--7---7--7----|


 4/4
  Gtr III
  E Q  E E E Q     Q   E E Q  E E    E  Q  E E E E   E
|---------------|-----------------|---------------------|
|---------------|-----------------|---------------------|
|---------------|-----------------|---------------------|
|---0----0---0--|--------0------0-|-----0----0---0------|
|---------------|--0---0---0--0---|---------------------|
|-0----0---0----|-----------------|--0-----0---0---/(7)-|
|
| Gtr IV
| W               +W                +W
|---------------|-----------------|---------------------|
|---------------|-----------------|---------------------|
|-7-------------|-(7)-------------|-(7)-----------------|
|-7-------------|-(7)-------------|-(7)-----------------|
|-5-------------|-(5)-------------|-(5)-----------------|
|---------------|-----------------|---------------------|


   Q  E E Q  E E   W          +W
|----------------|----------|--------|
|----------------|----------|--------|
|----------------|----------|--------|
|----------------|----------|--------|
|-------7------7-|----------|--------|
|--7--7---7--7---|-0--------|-(0)----|
|
|  W               W          +W
|----------------|----------|--------|
|-10-------------|----------|--------|
|--9-------------|-7--------|-(7)----|
|--7-------------|-7--------|-(7)----|
|----------------|-5--------|-(5)----|
|----------------|----------|--------|


 Riff 2 (0:14)
  Q=190
  Gtr I
   PM--------------------------------------------------------------------
   S  S S S S S S S S S S S S S S S    S  S S S S S S S S S S S S S S S
|-----------------------------------|-----------------------------------|
|-----------------------------------|-----------------------------------|
|-----------------------------------|-----------------------------------|
|-----------------------------------|-----------------------------------|
|--5--5-5-5-5-5-5-5-5-5-5-5-5-5-5-5-|--4--4-4-4-4-4-4-4-4-4-4-4-4-4-4-4-|
|-----------------------------------|-----------------------------------|
|
| Gtr II
|  PM--------------------------------------------------------------------
|  S  S S S S S S S S S S S S S S S    S  S S S S S S S S S S S S S S S
|-----------------------------------|-----------------------------------|
|-----------------------------------|-----------------------------------|
|-----------------------------------|-----------------------------------|
|-----------------------------------|-----------------------------------|
|--5--5-5-5-5-5-5-5-5-5-5-5-5-5-5-5-|--4--4-4-4-4-4-4-4-4-4-4-4-4-4-4-4-|
|-----------------------------------|-----------------------------------|
|
| Gtr IV
| +W                                  +W
|-----------------------------------|-----------------------------------|
|-----------------------------------|-----------------------------------|
|-(7)-------------------------------|-(7)-------------------------------|
|-(7)-------------------------------|-(7)-------------------------------|
|-(5)-------------------------------|-(5)-------------------------------|
|-----------------------------------|-----------------------------------|


 ---------------------------------------------------------------------|
   S  S S S S S S S S S S S S S S S    S  S S S S S S S S S S S S S S S
|-----------------------------------|--------------------------------------|
|-----------------------------------|--------------------------------------|
|-----------------------------------|--------------------------------------|
|--5--5-5-5-5-5-5-5-5-5-5-5-5-5-5-5-|--4--4-4-4-4-4-4-4-4-4-4-4-4-4-4-4----|
|-----------------------------------|--------------------------------------|
|-----------------------------------|--------------------------------------|
|
|---------------------------------------------------------------------|
|  S  S S S S S S S S S S S S S S S    S  S S S S S S S S S S S S S S S
|-----------------------------------|--------------------------------------|
|-----------------------------------|--------------------------------------|
|-----------------------------------|--------------------------------------|
|--5--5-5-5-5-5-5-5-5-5-5-5-5-5-5-5-|--4--4-4-4-4-4-4-4-4-4-4-4-4-4-4-4----|
|-----------------------------------|--------------------------------------|
|-----------------------------------|--------------------------------------|
|
| +W                                  +W
|-----------------------------------|--------------------------------------|
|-----------------------------------|--------------------------------------|
|-(7)-------------------------------|-(7)----------------------------------|
|-(7)-------------------------------|-(7)----------------------------------|
|-(5)-------------------------------|-(5)----------------------------------|
|-----------------------------------|--------------------------------------|


  Gtr I
  PM-------------------------------------------------------------------
  S S S S S S S S S S S S S S S S    S  S S S S S S S S S S S S S S S
|---------------------------------|-----------------------------------|
|---------------------------------|-----------------------------------|
|---------------------------------|-----------------------------------|
|---------------------------------|-----------------------------------|
|-5-5-5-5-5-5-5-5-5-5-5-5-5-5-5-5-|--4--4-4-4-4-4-4-4-4-4-4-4-4-4-4-4-|
|---------------------------------|-----------------------------------|
|
| Gtr II
| PM----------------------------------------------------------------|
| S S S S S S S S S S S S S S S S    S  S S S S S S S S S S S S S S S
|---------------------------------|-----------------------------------|
|---------------------------------|-----------------------------------|
|---------------------------------|-----------------------------------|
|---------------------------------|-----------------------------------|
|-5-5-5-5-5-5-5-5-5-5-5-5-5-5-5-5-|--4--4-4-4-4-4-4-4-4-4-4-4-4-4-4-4-|
|---------------------------------|-----------------------------------|
|
| Gtr IV
| W                                 +W
|---------------------------------|-----------------------------------|
|---------------------------------|-----------------------------------|
|-7-------------------------------|-(7)-------------------------------|
|-7-------------------------------|-(7)-------------------------------|
|-5-------------------------------|-(5)-------------------------------|
|---------------------------------|-----------------------------------|


 --------------------------------|
   S S S S S S S S S S S S S S S S
|----------------------------------|
|----------------------------------|
|----------------------------------|
|--5-5-5-5-5-5-5-5-5-5-5-5-5-5-5-5-|
|----------------------------------|
|----------------------------------|
|
|  S S S S S S S S S S S S S S S S
|----------------------------------|
|----------------------------------|
|--4-4-4-4-4-4-4-4-4-4-4-4-4-4-4-4-|
|----------------------------------|
|----------------------------------|
|----------------------------------|
|
|  W
|----------------------------------|
|----------------------------------|
|-16-------------------------------|
|-16-------------------------------|
|-14-------------------------------|
|----------------------------------|


  Gtr I
   PM-------------------------------
   S S S S S S S S S S S S S S S S
|----------------------------------|
|----------------------------------|
|----------------------------------|
|--4-4-4-4-4-4-4-4-4-4-4-4-4-4-4-4-|
|----------------------------------|
|----------------------------------|
|
| Gtr II
|  S S S S S S S S S S S S S S S S
|----------------------------------|
|----------------------------------|
|--2-2-2-2-2-2-2-2-2-2-2-2-2-2-2-2-|
|----------------------------------|
|----------------------------------|
|----------------------------------|
|
| Gtr IV
|  W
|----------------------------------|
|----------------------------------|
|-14-------------------------------|
|-14-------------------------------|
|-12-------------------------------|
|----------------------------------|


 -----------------------------------------------------------------|
  S S S S S S S S S S S S S S S S   S S S S S S S S S S S S S S S S
|---------------------------------|---------------------------------|
|---------------------------------|---------------------------------|
|---------------------------------|---------------------------------|
|---------------------------------|---------------------------------|
|-5-5-5-5-5-5-5-5-5-5-5-5-5-5-5-5-|-4-4-4-4-4-4-4-4-4-4-4-4-4-4-4-4-|
|---------------------------------|---------------------------------|
|
| PM--------------------------------------------------------------|
| S S S S S S S S S S S S S S S S   S S S S S S S S S S S S S S S S
|---------------------------------|---------------------------------|
|---------------------------------|---------------------------------|
|---------------------------------|---------------------------------|
|-4-4-4-4-4-4-4-4-4-4-4-4-4-4-4-4-|-2-2-2-2-2-2-2-2-2-2-2-2-2-2-2-2-|
|---------------------------------|---------------------------------|
|---------------------------------|---------------------------------|
|
| W                                 W
|---------------------------------|---------------------------------|
|---------------------------------|---------------------------------|
|-7-------------------------------|-6-------------------------------|
|-7-------------------------------|-6-------------------------------|
|-5-------------------------------|-4-------------------------------|
|---------------------------------|---------------------------------|


   Riff 3 (0:27)
    Gtr I
    PM--|           PM--------------------|           PM------------|
    E   E   Q       S S S S S S S S   E   E   Q       S S S S S S S S
||----------------------------------|----------------------------------|
||o---------------------------------|----------------------------------|
||----------------------------------|----------------------------------|
||----------------------------------|----------------------------------|
||o-1---1---1-------5-5-5-5-5-5-5-5-|-1---1---1-------5-5-5-5-5-5-5-5--|
||--3---2---3-----------------------|-3-------2------------------------|
|
|   Gtr II
|   PM--------------------------------------------------------------|
|   S S S S S S S S S S S S S S S S   S S S S S S S S S S S S S S S S
||----------------------------------|----------------------------------|
||o---------------------------------|----------------------------------|
||----------------------------------|----------------------------------|
||----------------------------------|----------------------------------|
||o---------1-1-1-1-----1-1---------|---------1-1-1-1-----1-1----------|
||--3-3-2-2---------3-3-----2-2-2-2-|-3-3-2-2---------3-3-----2-2-2-2--|


  1.
  Gtr I
  PM----------------------------------------------------------------|
  S S S S S S S S S S S S S S S S    S  S S S S S S S S S S S S S S S
|---------------------------------|------------------------------------||
|---------------------------------|-----------------------------------o||
|---------------------------------|------------------------------------||
|-5-5-5-5-5-5-5-5-5-5-5-5-5-5-5-5-|--4--4-4-4-4-4-4-4-4-4-4-4-4-4-4-4--||
|---------------------------------|-----------------------------------o||
|---------------------------------|------------------------------------||
|
| Gtr II
| PM----------------------------------------------------------------|
| S S S S S S S S S S S S S S S S    S  S S S S S S S S S S S S S S S
|---------------------------------|------------------------------------||
|---------------------------------|-----------------------------------o||
|---------------------------------|------------------------------------||
|-5-5-5-5-5-5-5-5-5-5-5-5-5-5-5-5-|--4--4-4-4-4-4-4-4-4-4-4-4-4-4-4-4--||
|---------------------------------|-----------------------------------o||
|---------------------------------|------------------------------------||
|
| Gtr IV
| W                                 +W
|---------------------------------|------------------------------------||
|---------------------------------|-----------------------------------o||
|-7-------------------------------|-(7)--------------------------------||
|-7-------------------------------|-(7)--------------------------------||
|-5-------------------------------|-(5)-------------------------------o||
|---------------------------------|------------------------------------||


  2.
  Gtr I
  PM----------------------------------------------------------------|
  S S S S S S S S S S S S S S S S    S  S S S S S S S S S S S S S S S
|---------------------------------|-----------------------------------|
|---------------------------------|-----------------------------------|
|---------------------------------|-----------------------------------|
|---------------------------------|-----------------------------------|
|-5-5-5-5-5-5-5-5-5-5-5-5-5-5-5-5-|--4--4-4-4-4-4-4-4-4-4-4-4-4-4-4-4-|
|---------------------------------|-----------------------------------|
|
| Gtr II
| PM----------------------------------------------------------------|
| S S S S S S S S S S S S S S S S    S  S S S S S S S S S S S S S S S
|---------------------------------|-----------------------------------|
|---------------------------------|-----------------------------------|
|---------------------------------|-----------------------------------|
|---------------------------------|-----------------------------------|
|-5-5-5-5-5-5-5-5-5-5-5-5-5-5-5-5-|--4--4-4-4-4-4-4-4-4-4-4-4-4-4-4-4-|
|---------------------------------|-----------------------------------|
|
| Gtr IV
| W                                 +W
|---------------------------------|-----------------------------------|
|---------------------------------|-----------------------------------|
|-7-------------------------------|-(7)-------------------------------|
|-7-------------------------------|-(7)-------------------------------|
|-5-------------------------------|-(5)-------------------------------|
|---------------------------------|-----------------------------------|


    Gtr I
    PM--|           PM--------------------|           PM------------|
    E   E   Q       S S S S S S S S   E   E   Q       S S S S S S S S
||----------------------------------|----------------------------------|
||o---------------------------------|----------------------------------|
||----------------------------------|----------------------------------|
||----------------------------------|----------------------------------|
||o-1---1---1-------5-5-5-5-5-5-5-5-|-1---1---1-------5-5-5-5-5-5-5-5--|
||--3---2---3-----------------------|-3-------2------------------------|
|
|   Gtr II
|   PM--------------------------------------------------------------|
|   S S S S S S S S S S S S S S S S   S S S S S S S S S S S S S S S S
||----------------------------------|----------------------------------|
||o---------------------------------|----------------------------------|
||----------------------------------|----------------------------------|
||----------------------------------|----------------------------------|
||o---------1-1-1-1-----1-1---------|---------1-1-1-1-----1-1----------|
||--3-3-2-2---------3-3-----2-2-2-2-|-3-3-2-2---------3-3-----2-2-2-2--|


  1.
  Gtr I
   PM---------------------------------------------------------------|
   S S S S S S S S S S S S S S S S    S S S S S S S S S S S S S S S S
|----------------------------------|-----------------------------------||
|----------------------------------|----------------------------------o||
|----------------------------------|-----------------------------------||
|--5-5-5-5-5-5-5-5-5-5-5-5-5-5-5-5-|--4-4-4-4-4-4-4-4-4-4-4-4-4-4-4-4--||
|----------------------------------|----------------------------------o||
|----------------------------------|-----------------------------------||
|
| Gtr II
|  PM---------------------------------------------------------------|
|  S S S S S S S S S S S S S S S S    S S S S S S S S S S S S S S S S
|----------------------------------|-----------------------------------||
|----------------------------------|----------------------------------o||
|----------------------------------|-----------------------------------||
|--5-5-5-5-5-5-5-5-5-5-5-5-5-5-5-5-|--4-4-4-4-4-4-4-4-4-4-4-4-4-4-4-4--||
|----------------------------------|----------------------------------o||
|----------------------------------|-----------------------------------||
|
| Gtr IV
|  W                                  W
|----------------------------------|-----------------------------------||
|----------------------------------|----------------------------------o||
|-16-------------------------------|-14--------------------------------||
|-16-------------------------------|-14--------------------------------||
|-14-------------------------------|-12-------------------------------o||
|----------------------------------|-----------------------------------||


  2.
  Gtr I
  PM--------------------------------------------------------------|
  S S S S S S S S S S S S S S S S   S S S S S S S S S S S S S S S S
|---------------------------------|---------------------------------|
|---------------------------------|---------------------------------|
|---------------------------------|---------------------------------|
|---------------------------------|---------------------------------|
|-5-5-5-5-5-5-5-5-5-5-5-5-5-5-5-5-|-4-4-4-4-4-4-4-4-4-4-4-4-4-4-4-4-|
|---------------------------------|---------------------------------|
|
| Gtr II
| PM--------------------------------------------------------------|
| S S S S S S S S S S S S S S S S   S S S S S S S S S S S S S S S S
|---------------------------------|---------------------------------|
|---------------------------------|---------------------------------|
|---------------------------------|---------------------------------|
|---------------------------------|---------------------------------|
|-5-5-5-5-5-5-5-5-5-5-5-5-5-5-5-5-|-4-4-4-4-4-4-4-4-4-4-4-4-4-4-4-4-|
|---------------------------------|---------------------------------|
|
| Gtr IV
| W                                 W
|---------------------------------|---------------------------------|
|---------------------------------|---------------------------------|
|-7-------------------------------|-6-------------------------------|
|-7-------------------------------|-6-------------------------------|
|-5-------------------------------|-4-------------------------------|
|---------------------------------|---------------------------------|


   Riff 4 (0:50)
    Gtr I
    PM            PM-|          PM            PM-|
    Q  Q  H       Q  Q  H       Q  Q  H       Q  Q  H       3x
||--------------|-------------|-------------|---------------||
||o-------------|-------------|-------------|--------------o||
||--------------|-------------|-------4-----|---------------||
||--------------|-------------|-------------|-------4-------||
||o-5--6--2-----|-5--6--2-----|-5--6--2-----|-5--6--2------o||
||--3--4--3-----|-3--4--3-----|-3--4--------|-3--4----------||
|
|   Gtr II
|   PM            PM------------|             PM-------|
|   Q  Q  Q  Q    Q  Q  Q  Q    Q  Q  Q  Q    Q  Q  Q  Q    3x
||--------------|-------------|-------------|---------------||
||o-------------|-------------|-------------|--------------o||
||--------------|-------------|-------------|---------------||
||--------------|-------------|-------------|---------------||
||o-5--3--5--6--|-5--3--5--6--|-5--3--5--6--|-5--3--5--6---o||
||--3--1--3--4--|-3--1--3--4--|-3--1--3--4--|-3--1--3--4----||


 Riff 5 (1:07)
  Q=250
  Gtr I
                                          PM--------|
  W                 W                 Q   E E E E E E
|-----------------|-----------------|-----------------|
|-----------------|-----------------|-----------------|
|-----------------|-----------------|-----------------|
|-----------------|-----------------|-----------------|
|-----------------|-----------------|---------5-------|
|-----------------|-----------------|-----3-2---3-5-3-|
|
| Gtr II
| PM------------------------------------------------|
| E E E E E E E E   E E E E E E E E   E E E E E E E E
|-----------------|-----------------|-----------------|
|-----------------|-----------------|-----------------|
|-----------------|-----------------|-----------------|
|-----------------|-----------------|-----------4-2-0-|
|-----------------|-----------------|-------2-5-------|
|-0-1-7-6-0-8-7-0-|-7-6-0-8-7-0-7-6-|-0-1-3-----------|


  PM--------------------------------------------------|
  E E E E E E E E   E E E E E E E E   E E S S E E E E E
|-----------------|-----------------|--------------------|
|-----------------|-----------------|--------------------|
|-----------------|-----------------|--------------------|
|-----------------|-----------------|--------------------|
|-----------------|-----------------|-----3-3-5-4-5S9S7--|
|-8-7-0-7-6-0-8-7-|-0-7-6-0-8-7-0-7-|-6-0-1-1-3-2-3S7S5--|
|
| PM--------------------------------------------------|
| E E E E E E E E   E E E E E E E E   E E S S E E E E E
|-----------------|-----------------|--------------------|
|-----------------|-----------------|--------------------|
|-----------------|-----------------|--------------------|
|-----------------|-----------------|-------------4-2-0--|
|-----------------|-----------------|-----3-3-5-4--------|
|-8-7-0-7-6-0-8-7-|-0-7-6-0-8-7-0-7-|-6-0-1-1-3-2--------|


                                                       5/4
  PM------------------------------|       PM--------------------|    ~~~
  E E E E E E E E   E E E E E E E E   E E E E E E E E   E E E E E E +H
|-----------------|-----------------|-----------------|--------------------|
|-----------------|-----------------|-----------------|--------------------|
|-----------------|-----------------|-----------------|--------------------|
|-----------------|-----------------|-----------------|-----2--------------|
|-----------------|-----------------|---------3-2-----|-------3p2p0-(0)----|
|-8-7-0-7-6-0-8-7-|-0-7-6-0-8-7-0-7-|-6-0-3-2-----3S2-|-5-3----------------|
|
| PM------------------------------|       PM--------------------|    ~~~
| E E E E E E E E   E E E E E E E E   E E E E E E E E   E E E E E E +H
|-----------------|-----------------|-----------------|--------------------|
|-----------------|-----------------|-----------------|--------------------|
|-----------------|-----------------|-----------------|-----4p0------------|
|-----------------|-----------------|---------7p4p0-0h|=2h4-----4p2-(2)----|
|-----------------|-----------------|-----5-4---------|--------------------|
|-8-7-0-7-6-0-8-7-|-0-7-6-0-8-7-0-7-|-6-0-------------|--------------------|


   4/4
    Gtr I
    PM------------------------------------------------|
    E E E E E E E E   E E E E E E E E   E E E E E E E E
||------------------|-----------------|-----------------|
||o-----------------|-----------------|-----------------|
||------------------|-----------------|-----------------|
||------------------|-----------------|-----------------|
||o-----------------|-----------------|---------5-------|
||--8-7-0-7-6-0-8-7-|-0-7-6-0-8-7-0-7-|-6-0-3-2---3-5-3-|
|
|   Gtr II
|   PM------------------------------------------------|
|   E E E E E E E E   E E E E E E E E   E E E E E E E E
||------------------|-----------------|-----------------|
||o-----------------|-----------------|-----------------|
||------------------|-----------------|-----------------|
||------------------|-----------------|---------7-------|
||o-----------------|-----------------|-----5-4---0-7-5-|
||--8-7-0-7-6-0-8-7-|-0-7-6-0-8-7-0-7-|-6-0-------------|


                                                       5/4
  Gtr I
  PM--------------------------------------------------------------|  ~~~
  E E E E E E E E   E E E E E E E E   E E E E E E E E   E E E E E E +H      3x
|-----------------|-----------------|-----------------|---------------------||
|-----------------|-----------------|-----------------|--------------------o||
|-----------------|-----------------|-----------------|---------------------||
|-----------------|-----------------|-----------------|-----2---------------||
|-----------------|-----------------|-----------------|-------3-2-0-(0)----o||
|-8-7-0-7-6-0-8-7-|-0-7-6-0-8-7-0-7-|-6-0-3-2-3-0-5-3-|-3-2-----------------||
|
| Gtr II
| PM--------------------------------------------------------------|
| E E E E E E E E   E E E E E E E E   E E E E E E E E   E E E E E E +H      3x
|-----------------|-----------------|-----------------|---------------------||
|-----------------|-----------------|-----------------|--------------------o||
|-----------------|-----------------|-----------------|-----4p0-------------||
|-----------------|-----------------|---------7-4-----|---------0-2-(2)-----||
|-----------------|-----------------|-------------5-5-|-0-2----------------o||
|-8-7-0-7-6-0-8-7-|-0-7-6-0-8-7-0-7-|-6-0-5-7---------|---------------------||


 Riff 6 (1:44)
  Q=190
 4/4
  Gtr I
  PM|    PM|      PM|
  E E Q  E E Q    E E H.
|---------------|----------------|
|---------------|----------------|
|---------------|----------------|
|---------------|----------------|
|-5-3----5-3----|-5-3------------|
|-3-1----3-1----|-3-1------------|
|
| Gtr II
| PM|    PM|      PM|     PM|
| E E Q  E E Q    E E Q   E E Q
|---------------|----------------|
|---------------|----------------|
|---------------|----------------|
|-----4------4--|-----4-------4--|
|-6-5-2--6-5-2--|-6-5-2---6-5-2--|
|-4-3----4-3----|-4-3-----4-3----|


    Gtr I
    PM|    PM|      PM|    PM|      PM|    PM|      PM|    PM|
    E E Q  E E Q    E E Q  E E Q    E E Q  E E Q    E E Q  E E Q
||----------------|---------------|---------------|-----------------||
||o---------------|---------------|---------------|----------------o||
||----------------|---------------|---------------|-----------------||
||----------------|---------------|---------------|-----------------||
||o-5-3-6--5-3-6--|-5-3-6--5-3-6--|-5-3-6--5-3-6--|-5-3-6--5-3-6---o||
||--3-1-4--3-1-4--|-3-1-4--3-1-4--|-3-1-4--3-1-4--|-3-1-4--3-1-4----||
|
|   Gtr II
|   PM|    PM|      PM|    PM|      PM|    PM|      PM|    PM|
|   E E Q  E E Q    E E Q  E E Q    E E Q  E E Q    E E Q  E E Q
||----------------|---------------|---------------|-----------------||
||o---------------|---------------|---------------|----------------o||
||----------------|---------------|---------------|-----------------||
||------5------5--|-----4------4--|-----5------5--|-----4------4----||
||o-6-5-3--6-5-3--|-6-5-2--6-5-2--|-6-5-3--6-5-3--|-6-5-2--6-5-2---o||
||--4-3----4-3----|-4-3----4-3----|-4-3----4-3----|-4-3----4-3------||


   Riff 7 (1:59)
    Gtr I
    PM--------------------------------------------------------------|
    S S S S S S S S S S S S S S S S   S S S S S S S S S S S S S S S S   4x
||----------------------------------|-----------------------------------||
||o---------------------------------|----------------------------------o||
||----------------------------------|-----------------------------------||
||----------------------------------|-----------------------------------||
||o-----1-1---------5-5-5-5-5-5-5-5-|-----1-1-1-1-1-1-5-5-5-5-5-5-5-5--o||
||--3-3-----3-3-3-3-----------------|-3-3-----3-3-3-3-------------------||
|
|   Gtr II
|   PM--------------------------------------------------------------|
|   S S S S S S S S S S S S S S S S   S S S S S S S S S S S S S S S S   4x
||----------------------------------|-----------------------------------||
||o---------------------------------|----------------------------------o||
||----------------------------------|-----------------------------------||
||----------------------------------|-----------------------------------||
||o---------1-1-1-1-----1-1---------|---------1-1-1-1-----1-1----------o||
||--3-3-2-2---------3-3-----2-2-2-2-|-3-3-2-2---------3-3-----2-2-2-2---||


   Riff 8 (2:10)
    Gtr I
    PM-------------------------------------------------------------------
    S S S S S S S S S S S S S S S S    S  S S S S S S S S S S S S S S S
||----------------------------------|-----------------------------------|
||o---------------------------------|-----------------------------------|
||----------------------------------|-----------------------------------|
||--5-5-5-5-5-5-5-5-5-5-5-5-5-5-5-5-|--4--4-4-4-4-4-4-4-4-4-4-4-4-4-4-4-|
||o---------------------------------|-----------------------------------|
||----------------------------------|-----------------------------------|
|
|   Gtr II
|   PM-------------------------------------------------------------------
|   S S S S S S S S S S S S S S S S    S  S S S S S S S S S S S S S S S
||----------------------------------|-----------------------------------|
||o---------------------------------|-----------------------------------|
||----------------------------------|-----------------------------------|
||--5-5-5-5-5-5-5-5-5-5-5-5-5-5-5-5-|--4--4-4-4-4-4-4-4-4-4-4-4-4-4-4-4-|
||o---------------------------------|-----------------------------------|
||----------------------------------|-----------------------------------|
|
|   Gtr IV
|   W                                 +W
||----------------------------------|-----------------------------------|
||o---------------------------------|-----------------------------------|
||--7-------------------------------|-(7)-------------------------------|
||--7-------------------------------|-(7)-------------------------------|
||o-5-------------------------------|-(5)-------------------------------|
||----------------------------------|-----------------------------------|


 ---------------------------------------------------------------------|
   S  S S S S S S S S S S S S S S S    S  S S S S S S S S S S S S S S S
|-----------------------------------|--------------------------------------|
|-----------------------------------|--------------------------------------|
|-----------------------------------|--------------------------------------|
|-----------------------------------|--------------------------------------|
|--5--5-5-5-5-5-5-5-5-5-5-5-5-5-5-5-|--4--4-4-4-4-4-4-4-4-4-4-4-4-4-4-4----|
|-----------------------------------|--------------------------------------|
|
|---------------------------------------------------------------------|
|  S  S S S S S S S S S S S S S S S    S  S S S S S S S S S S S S S S S
|-----------------------------------|--------------------------------------|
|-----------------------------------|--------------------------------------|
|-----------------------------------|--------------------------------------|
|-----------------------------------|--------------------------------------|
|--5--5-5-5-5-5-5-5-5-5-5-5-5-5-5-5-|--4--4-4-4-4-4-4-4-4-4-4-4-4-4-4-4----|
|-----------------------------------|--------------------------------------|
|
| +W                                  +W
|-----------------------------------|--------------------------------------|
|-----------------------------------|--------------------------------------|
|-(7)-------------------------------|-(7)----------------------------------|
|-(7)-------------------------------|-(7)----------------------------------|
|-(5)-------------------------------|-(5)----------------------------------|
|-----------------------------------|--------------------------------------|


  Gtr I
   PM------------------------------------------------------------------
   S S S S S S S S S S S S S S S S    S S S S S S S S S S S S S S S S
|----------------------------------|----------------------------------|
|----------------------------------|----------------------------------|
|----------------------------------|----------------------------------|
|--5-5-5-5-5-5-5-5-5-5-5-5-5-5-5-5-|--4-4-4-4-4-4-4-4-4-4-4-4-4-4-4-4-|
|----------------------------------|----------------------------------|
|----------------------------------|----------------------------------|
|
| Gtr II
|  S S S S S S S S S S S S S S S S    S S S S S S S S S S S S S S S S
|----------------------------------|----------------------------------|
|----------------------------------|----------------------------------|
|--4-4-4-4-4-4-4-4-4-4-4-4-4-4-4-4-|--2-2-2-2-2-2-2-2-2-2-2-2-2-2-2-2-|
|----------------------------------|----------------------------------|
|----------------------------------|----------------------------------|
|----------------------------------|----------------------------------|
|
| Gtr IV
|  W                                  W
|----------------------------------|----------------------------------|
|----------------------------------|----------------------------------|
|-16-------------------------------|-14-------------------------------|
|-16-------------------------------|-14-------------------------------|
|-14-------------------------------|-12-------------------------------|
|----------------------------------|----------------------------------|


 -----------------------------------------------------------------|
  S S S S S S S S S S S S S S S S   S S S S S S S S S S S S S S S S
|---------------------------------|-------------------------------------||
|---------------------------------|------------------------------------o||
|---------------------------------|-------------------------------------||
|---------------------------------|-------------------------------------||
|-5-5-5-5-5-5-5-5-5-5-5-5-5-5-5-5-|-4-4-4-4-4-4-4-4-4-4-4-4-4-4-4-4----o||
|---------------------------------|-------------------------------------||
|
| PM--------------------------------------------------------------|
| S S S S S S S S S S S S S S S S   S S S S S S S S S S S S S S S S
|---------------------------------|-------------------------------------||
|---------------------------------|------------------------------------o||
|---------------------------------|-------------------------------------||
|-4-4-4-4-4-4-4-4-4-4-4-4-4-4-4-4-|-2-2-2-2-2-2-2-2-2-2-2-2-2-2-2-2-----||
|---------------------------------|------------------------------------o||
|---------------------------------|-------------------------------------||
|
| W                                 W
|---------------------------------|-------------------------------------||
|---------------------------------|------------------------------------o||
|-7-------------------------------|-6-----------------------------------||
|-7-------------------------------|-6-----------------------------------||
|-5-------------------------------|-4----------------------------------o||
|---------------------------------|-------------------------------------||


    Gtr I
    PM--|           PM--------------------|           PM------------|
    E   E   Q       S S S S S S S S   E   E   Q       S S S S S S S S   5x
||----------------------------------|-----------------------------------||
||o---------------------------------|----------------------------------o||
||----------------------------------|-----------------------------------||
||----------------------------------|-----------------------------------||
||o-1---1---1-------5-5-5-5-5-5-5-5-|-1---1---1-------5-5-5-5-5-5-5-5--o||
||--3---2---3-----------------------|-3-------2-------------------------||
|
|   Gtr II
|   PM--------------------------------------------------------------|
|   S S S S S S S S S S S S S S S S   S S S S S S S S S S S S S S S S   5x
||----------------------------------|-----------------------------------||
||o---------------------------------|----------------------------------o||
||----------------------------------|-----------------------------------||
||----------------------------------|-----------------------------------||
||o---------1-1-1-1-----1-1---------|---------1-1-1-1-----1-1----------o||
||--3-3-2-2---------3-3-----2-2-2-2-|-3-3-2-2---------3-3-----2-2-2-2---||


 Riff 9 (2:51)
  Q=160
  Gtr III
                                             ~
  Q  Q  H       Q   Q  H       Q   Q  H      W
|------------|--------------|--------------|------|
|------------|--------------|--------------|------|
|-------0----|---------0----|---------0----|------|
|----5-------|------5-------|------5-------|-6----|
|-3----------|--5-----------|--6-----------|-8----|
|------------|--------------|--------------|------|
|
| Gtr IV
| W            +W             +W             W
|------------|--------------|--------------|------|
|-8----------|-(8)----------|-(8)----------|-9----|
|------------|--------------|--------------|------|
|-5----------|-(5)----------|-(5)----------|-6----|
|-3----------|-(3)----------|-(3)----------|-8----|
|------------|--------------|--------------|------|


    Gtr III
    Q  Q  H       Q   Q  H       Q   Q  H      Q  Q  Q  Q    4x
||-------------|--------------|--------------|---------------||
||o------------|--------------|--------------|--------------o||
||--------0----|---------0----|---------0----|-------0-------||
||-----5-------|------5-------|------5-------|----6-----6----||
||o-3----------|--5-----------|--6-----------|-8------------o||
||-------------|--------------|--------------|---------------||
|
|   Gtr IV
|   W            +W             +W             W             4x
||-------------|--------------|--------------|---------------||
||o-8----------|-(8)----------|-(8)----------|-9------------o||
||-------------|--------------|--------------|---------------||
||--5----------|-(5)----------|-(5)----------|-6-------------||
||o-3----------|-(3)----------|-(3)----------|-8------------o||
||-------------|--------------|--------------|---------------||


   Riff 10 (3:23)
    Gtr I
                 ~
    H    Q  Q    W          H    Q  Q    W
||-------------|----------|------------|------|
||o------------|----------|------------|------|
||-------------|----------|------------|------|
||-------------|----------|------------|------|
||o-3----6--6--|-4--------|-3----6--6--|-4----|
||--1----4--4--|-2--------|-1----4--4--|-2----|
|
|   Gtr II
|                ~
|   H    Q  Q    W          H    Q  Q    W
||-------------|----------|------------|------|
||o------------|----------|------------|------|
||-------------|----------|------------|------|
||-------------|----------|------------|------|
||o-0----3--3--|-1--------|-0----3--3--|-1----|
||--1----4--4--|-2--------|-1----4--4--|-2----|


  Gtr I
               ~
  H    Q  Q    W          H    Q  Q    W          +W
|------------|----------|------------|----------|---------||
|------------|----------|------------|----------|--------o||
|------------|----------|------------|----------|---------||
|------------|----------|------------|----------|---------||
|-3----6--6--|-4--------|-3----6--6--|-4--------|-(4)----o||
|-1----4--4--|-2--------|-1----4--4--|-2--------|-(2)-----||
|
| Gtr II
|              ~
| H    Q  Q    W          H    Q  Q    W          +W
|------------|----------|------------|----------|---------||
|------------|----------|------------|----------|--------o||
|------------|----------|------------|----------|---------||
|------------|----------|------------|----------|---------||
|-0----3--3--|-1--------|-0----3--3--|-1--------|-(1)----o||
|-1----4--4--|-2--------|-1----4--4--|-2--------|-(2)-----||


  Gtr I
                                     ~
  H    Q  Q    W          W          W
|------------|----------|----------|------|
|------------|----------|----------|------|
|------------|----------|----------|------|
|------------|----------|----------|------|
|-3----6--6--|----------|----------|-4----|
|-1----4--4--|----------|----------|-2----|
|
| Gtr II
|                                    ~
| H    Q  Q    W          W          W
|------------|----------|----------|------|
|------------|----------|----------|------|
|------------|----------|----------|------|
|------------|----------|----------|------|
|-0----3--3--|----------|----------|-1----|
|-1----4--4--|----------|----------|-2----|
|
| Gtr IV
| W            W          W          W
|------------|----------|----------|------|
|------------|-7--------|-6--------|-7----|
|------------|----------|----------|------|
|------------|-4--------|-3--------|-4----|
|------------|----------|----------|------|
|------------|----------|----------|------|


  Gtr I
                                    ~
  H    H      W          W          W
|-----------|----------|----------|------|
|-----------|----------|----------|------|
|-----------|----------|----------|------|
|-----------|----------|----------|------|
|-3----6----|----------|----------|-4----|
|-1----4----|----------|----------|-2----|
|
| Gtr II
|                                   ~
| H    H      W          W          W
|-----------|----------|----------|------|
|-----------|----------|----------|------|
|-----------|----------|----------|------|
|-----------|----------|----------|------|
|-0----3----|----------|----------|-1----|
|-1----4----|----------|----------|-2----|
|
| Gtr IV
| W           W          W          W
|-----------|----------|----------|------|
|-----------|-7--------|-6--------|-7----|
|-----------|----------|----------|------|
|-----------|-4--------|-3--------|-4----|
|-----------|----------|----------|------|
|-----------|----------|----------|------|


 Riff 12 (4:12)
  Q=190
  Gtr I
                                    PM----------------------------|
  W                                 S S S S S S S S S S S S S S S S
|---------------------------------|---------------------------------|
|---------------------------------|---------------------------------|
|---------------------------------|---------------------------------|
|---------------------------------|---------------------------------|
|---------------------------------|---------------------------------|
|---------------------------------|-1-1-1-1-4-4-4-4-5-5-5-5-5-5-5-5-|
|
| Gtr II
| PM--------------------------------------------------------------|
| S S S S S S S S S S S S S S S S   S S S S S S S S S S S S S S S S
|---------------------------------|---------------------------------|
|---------------------------------|---------------------------------|
|---------------------------------|---------------------------------|
|---------------------------------|---------------------------------|
|---------3-3-3-3-----------------|---------3-3-3-3-----------------|
|-1-1-1-1---------2-2-2-2-2-2-2-2-|-1-1-1-1---------2-2-2-2-2-2-2-2-|


  Gtrs I, II
  W          W
|----------|------|
|----------|------|
|----------|------|
|----------|------|
|----------|------|
|----------|------|


                                     1.,2.,3.
    Gtr I
    PM----------------------------------------------------|
    S S S S S S S S S S S S S S S S   S S S S S S S S E E Q   4x
||----------------------------------|-------------------------||
||o---------------------------------|------------------------o||
||----------------------------------|-------------------------||
||----------------------------------|-------------------------||
||o---------------------------------|------------------------o||
||--1-1-1-1-4-4-4-4-5-5-5-5-5-5-5-5-|-1-1-1-1-4-4-4-4-5-5-5---||
|
|   Gtr II
|   PM----------------------------------------------------|
|   S S S S S S S S S S S S S S S S   S S S S S S S S E E Q   4x
||----------------------------------|-------------------------||
||o---------------------------------|------------------------o||
||----------------------------------|-------------------------||
||----------------------------------|-------------------------||
||o---------3-3-3-3-----------------|---------3-3-3-3--------o||
||--1-1-1-1---------2-2-2-2-2-2-2-2-|-1-1-1-1---------2-2-2---||


  4.
  PM------------------|
  S S S S S S S S E E E E   W
|-------------------------|------*|
|-------------------------|------*|
|-------------------------|------*|
|-------------------------|------*|
|-------------------------|------*|
|-1-1-1-1-4-4-4-4-5-5-5-5-|------*|
|
| PM------------------|
| S S S S S S S S E E E E   W
|-------------------------|------*|
|-------------------------|------*|
|-------------------------|------*|
|-------------------------|------*|
|---------3-3-3-3---------|------*|
|-1-1-1-1---------2-2-2-2-|------*|

End.

  Visit MetalTabs.com for more metal tablature

bottom separator

Contact Us | Privacy Policy | Disclaimer | Legal Notice
Copyright © 2001-2014 MetalTabs.com. All Rights Reserved.