top separator

Home

Forum

FAQ

Contact Us

Link to Us

MetalTabs.com logo

Bands

0-9

A

B

C

D

E

F

G

H

I

J

K

L

M

N

O

P

Q

R

S

T

U

V

W

X

Y

Z

Arch Enemy - "I Am Legend / Out For Blood" Guitar Tab

Plain Text Version
More Arch Enemy Tabs

Hits: 14404
Rated: 3.88 out of 5 (8 votes)
Updated: 2005-09-01 15:44:05

By:

lolo666


#----------------------------------PLEASE NOTE---------------------------------#
#This file is the author's own work and represents their interpretation of the #
#song. You may only use this file for private study, scholarship, or research. #
#Unless specified otherwise, this is NOT an official tab from the band members.#
#------------------------------------------------------------------------------#

  Visit MetalTabs.com for more metal tablature
  
ARCH ENEMY  I AM LEGEND / OUT FOR BLOOD
                        From the Album DOOMSDAY MACHINE

                        Version 1.0 - August 2005

Transcribed by: lolo666

For Questions, Comments, Newest Version, or Corrections contact
 Lolo666: at lolo666@darkenemy.net


                                            M Amott, C Amott, Erlandson, Gossow.

Riff A : 6 times Guit 1 & 2


C |----------------------|----------------------|----------------------|
G |----------------------|----------------------|----------------------|
D#|----------------------|----------------------|-------------------7--|
A#|----------------7--8--|------------10--8--7--|------------8--10-----|
F |--0--0-0-0--10--------|--0--0-0-0------------|--0--0-0-0------------|
C |----------------------|----------------------|----------------------|


------------------------|
------------------------|
------------------------|
--10--8h10p7--8--7------|
--------------------10--|
------------------------|


Riff B1 : 4 times Guit 1
----------------------|----------------------|----------------------|
----------------------|----------------------|----------------------|
----------------------|----------------------|----------------------|
--7---------7---------|--7-------------7--8--|--6---------6---------|
-----0-0-0-----0-0-0--|-----0-0-0--10--------|-----0-0-0-----0-0-0--|
----------------------|----------------------|----------------------|


----------------------|
----------------------|
----------------------|
--5---------5---------|
-----0-0-0-----0-0-0--|
----------------------|


Riff B2 : 1st time & 3rd time Guit 2
---------------|------------------|---------------|---------------|
---------------|------------------|---------------|---------------|
--9------------|--------7--9--10--|--8------------|--7------------|
--7------------|--------5--7--8---|--6------------|--5------------|
--0------------|------------------|---------------|---------------|
---------------|------------------|---------------|---------------|

Riff A : 4 times
Riff B1 & B2

Riff B3 1 time Guit 1 & 2
---------------|-------------------|--------------------|
---------------|-------------------|--------------------|
--9------------|------------9--10--|--8--------7--------|
--7------------|--------12--7--8---|--6--------5--------|
--0------------|--------10---------|--------------------|
---------------|-------------------|--------------------|


Riff C guit 1 & 2 : 3 2/3 times last 1/3 fill 1 & riff C1
--------------------|--------------------|--------------------------|
--------------------|--------------------|--------------------------|
--------------------|--------------------|--------------------------|
--------4-----5-----|--3-----2-----------|--------2-----3-----4-----|
--------------------|--------------------|--5-----------------------|
--2--2-----2-----2--|-----2-----0--0--0--|-----0-----0-----0-----2--|

fill 1
--------------------------|
--------------------------|
--------------------------|
--------2-----3-----4-----|
--5--------------------4--|
-----0-----0-----0-----2--|

Riff C1
------------------|------------------|-------------------|--------------|
------------------|------------------|-------------------|--------------|
------------------|------------------|-------------------|--------------|
---------------7--|----7----------9--|----9----------11--|----11/-------|
----4----------5--|----5----5--5--7--|----7----7--7--9---|----9/--------|
----2----2--2--5--|----5----------7--|----7----------9---|----9/--------|


Riff C guit 1 & 2 : 3 2/3 times last 1/3 fill 2 & riff C2

Fill 2
---------------14--|----14--------20--|----20--------14--|----14------------|
---------------13--|----13--------19--|----19--------13--|----13------------|
---------------11--|----11--------17--|----17--------11--|----11------------|
-------------------|------------------|------------------|------------------|
----4--------------|------------------|------------------|------------------|
----2----2--2------|------------------|------------------|------------------|


Riff D1 Guit 1 & 2 : 1 times
-------------------------|-------------------------|-------------------------|
-------------------------|-------------------------|-------------------------|
-------------------------|-------------------------|-------------------------|
--7-------7-----8-----5--|--7-------7-----8-----5--|--7-------7-----8-----5--|
-------0-----0-----0-----|-------0-----0-----0-----|-------0-----0-----0-----|
-------------------------|-------------------------|-------------------------|


--------------------------|
--------------------------|
--------------------------|
-----7-----3-----5-----2--|
--0-----0-----0-----0-----|
--------------------------|

Guit 1 Riff D1
Guit 2 Riff D2

Riff D2
----------------------------|----------------------------|
----------------------------|----------------------------|
----------------------------|----------------------------|
--11-------11-----12-----8--|--11-------11-----12-----8--|
--------0------0------0-----|--------0------0------0-----|
----------------------------|----------------------------|

----------------------------|---------------------------|
----------------------------|---------------------------|
----------------------------|---------------------------|
--11-------11-----12-----8--|-----11-----7-----8-----5--|
--------0------0------0-----|--0------0-----0-----0-----|
----------------------------|---------------------------|


Riff E1 Guit 1
---------------------|-------------------|
---------------------|-------------------|
--9------------------|----------------8--|
--7--------------10--|----------------8--|
-----------------8---|----------------6--|
---------------------|-------------------|


------------------|---------------------|--------------------|
------------------|---------------------|--------------------|
------------------|--5--------7------9--|--------------------|
------------------|--3--------5------7--|----------------10--|
------------------|---------------------|----------------8---|
------------------|---------------------|--------------------|


-------------------|------------------|--------------------|
-------------------|------------------|--------------------|
----------------8--|------------------|--5--------7--------|
----------------8--|------------------|--3--------5--------|
----------------6--|------------------|--------------------|
-------------------|------------------|--------------------|


Riff E2 Guit 2
-----------------------|----------------------|---------------------|
-----------------------|----------------------|---------------------|
-----------------------|----------------------|---------------------|
--7~---7----8----5--7~-|------7----8----5--7~-|------7----8----5----|
-----------------------|----------------------|---------------------|
-----------------------|----------------------|---------------------|


-----------------------|----------------------|-----------------------|
-----------------------|----------------------|-----------------------|
-----------------------|----------------------|-----------------------|
--7----3----5----2--7~-|------7----8----5--7~-|--7~---7----8----5--7~-|
-----------------------|----------------------|-----------------------|
-----------------------|----------------------|-----------------------|


---------------------|----------------------|
---------------------|----------------------|
---------------------|----------------------|
------7----8----5----|--7----3----5----2----|
---------------------|----------------------|
---------------------|----------------------|

Break Drums and Keyboard


Riff F 2 times Guit 1 & 2 : 1st palm mute
--------------------|----------------------|--------------------|
--------------------|----------------------|--------------------|
--------------------|----------------------|--------------------|
------2----3--------|--2----3----6----5----|------2----3--------|
------2----3--------|--2----3----6----5----|------2----3--------|
------0----1--------|--0----1----4----3----|------0----1--------|


----------------------|
----------------------|
------------4----3----|
--2----3----4----3----|
--2----3----2----1----|
--0----1--------------|


Riff G Guit 1 & 2 3  time and fill 3
----------------------------|------------------------------------------|
----------------------------|------------------------------------------|
----------------------------|------------------------------------------|
----------------------------|------------------------------------------|
-------7-7-7-7-8-8-8-8------|--7-7-7-7-8-8-8-8-12-12-12-12-11-11-11-11-|
--0--------------------0----|------------------------------------------|


----------------------------|--------------------------------------|
----------------------------|--------------------------------------|
----------------------------|--------------------------------------|
----------------------------|------------------10-10-10-10-9-9-9-9-|
-------7-7-7-7-8-8-8-8------|--7-7-7-7-8-8-8-8---------------------|
--0--------------------0----|--------------------------------------|

Fill 3
----------------------|----------------------|
----------------------|----------------------|
----------------------|----------------------|
-----------------4----|--5----4----5----7----|
--7----6----7----2----|--3----2----3----5----|
--5----4----5---------|----------------------|


Riff H1 2 times
-----------0--------|------------------|-----------2--------|------------------|
-----------0--------|------------------|-----------3--------|------------------|
--------------------|------------------|--------------------|------------------|
--------------------|------------------|--------------------|------------------|
--2-----------------|------------------|--5-----------------|------------------|
--0-----------------|------------------|--2-----------------|------------------|


-----------3--------|-----------------|-------------------|--------------------|
-----------3--------|-----------------|-------------------|--------------------|
--------------------|-----------------|-------------------|--------------------|
--------------------|-----------------|--5----------------|--------------------|
--5-----------------|-----------------|--3----------------|--5--------5--------|
--3-----------------|-----------------|-------------------|--3--------2--------|



Riff H 2 solo guit 2 : 2 times
------------------------------------------------|
-------------10--12--13-------------10--12--13--|
--9--11--12--------------9--11--12--------------|
------------------------------------------------|
------------------------------------------------|
------------------------------------------------|

------------------------------------------------|
-------------10--12--13-------------10--12--13--|
--9--11--12--------------9--11--12--------------|
------------------------------------------------|
------------------------------------------------|
------------------------------------------------|


--------------------------------------------------|
--------------12--13--15--------------12--13--15--|
--11--12--14--------------11--12--14--------------|
--------------------------------------------------|
--------------------------------------------------|
--------------------------------------------------|


--------------------------------------------------|
--------------12--13--15--------------12--13--15--|
--11--12--14--------------11--12--14--------------|
--------------------------------------------------|
--------------------------------------------------|
--------------------------------------------------|


--------------------------------------------------|
--------------13--15--17--------------13--15--17--|
--12--14--16--------------12--14--16--------------|
--------------------------------------------------|
--------------------------------------------------|
--------------------------------------------------|


--------------------------------------------------|
--------------13--15--17--------------13--15--17--|
--12--14--16--------------12--14--16--------------|
--------------------------------------------------|
--------------------------------------------------|
--------------------------------------------------|


--------------------------------------------------|
--------------13--15--17--------------13--15--17--|
--12--14--16--------------12--14--16--------------|
--------------------------------------------------|
--------------------------------------------------|
--------------------------------------------------|


--------------------------------------------------|
--------------12--13--15--------------12--13--15--|
--11--12--14--------------11--12--14--------------|
--------------------------------------------------|
--------------------------------------------------|
--------------------------------------------------|


Riff H 3 Solo Guit 1
-------------8--10--12-------------8--10--12--|
--8--10--12-------------8--10--12-------------|
----------------------------------------------|
----------------------------------------------|
----------------------------------------------|
----------------------------------------------|


-------------8--10--12-------------8--10--12--|
--8--10--12-------------8--10--12-------------|
----------------------------------------------|
----------------------------------------------|
----------------------------------------------|
----------------------------------------------|


--------------10--12--14--------------10--12--14--|
--10--12--13--------------10--12--13--------------|
--------------------------------------------------|
--------------------------------------------------|
--------------------------------------------------|
--------------------------------------------------|


--------------10--12--14--------------10--12--14--|
--10--12--13--------------10--12--13--------------|
--------------------------------------------------|
--------------------------------------------------|
--------------------------------------------------|
--------------------------------------------------|




--------------12--14--15--------------12--14--15--|
--12--13--15--------------12--13--15--------------|
--------------------------------------------------|
--------------------------------------------------|
--------------------------------------------------|
--------------------------------------------------|


--------------12--14--15--------------12--14--15--|
--12--13--15--------------12--13--15--------------|
--------------------------------------------------|
--------------------------------------------------|
--------------------------------------------------|
--------------------------------------------------|


--------------12--14--15--------------12--14--15--|
--12--13--15--------------12--13--15--------------|
--------------------------------------------------|
--------------------------------------------------|
--------------------------------------------------|
--------------------------------------------------|


--------------10--12--14--------------10--12--14--|
--10--12--13--------------10--12--13--------------|
--------------------------------------------------|
--------------------------------------------------|
--------------------------------------------------|
--------------------------------------------------|


Riff I Guit : 4 times
------------------------------------|------------------------------------|
------------------------------------|------------------------------------|
------------------------------------|------------------------------------|
------------------------------------|------------------------------------|
------------------------------------|------------------------------------|
--0----0--0--0--0--0----0--0--0--0--|--0----0--0--0--0--0----0--0--0--0--|


-------------------|-------------------|
-------------------|-------------------|
-------------------|-------------------|
--5----------------|--4----------------|
--3----------------|--2----------------|
-------------------|-------------------|


Solo Guit 1 : 2 times and at the end of the 2nd time fill 4 last part
--------------------------------------------|
--------------------------------------------|
-----------------------------------------7--|
--------------------7--9-10-9--7--9--10-----|
--9-10-9--7--9--10--------------------------|
--------------------------------------------|


-------------------------------------------------10--|
-----------------------10--12-13-12--10--12--13------|
--11-12-11--9--11--12--------------------------------|
-----------------------------------------------------|
-----------------------------------------------------|
-----------------------------------------------------|


--12--0--0--10--0--0--8--0--0--7--0--0--|
----------------------------------------|
----------------------------------------|
----------------------------------------|
----------------------------------------|
----------------------------------------|


--10--8--7--------------------------------|
------------10--8--7----------------------|
----------------------9--7----------------|
----------------------------10--9--7------|
--------------------------------------10--|
------------------------------------------|

Fill 4
--10-8-7--------------------------------------------|-----------------|
---------10-8-7-------------------------------------|-----------------|
----------------9-7-5-------9-7-5-------------------|-----------------|
----------------------9-7-5-------9-7-5-------------|-----------------|
----------------------------------------9-7-5-------|--2--------------|
----------------------------------------------8-7-5-|--0--------------|


Solo Guit 2
------------------------------------------------------|
------------------------------------------------------|
------------------------------------------------------|
----------------------------12-14-12------12--14--16--|
--12-14-12------12--14--15------------15--------------|
------------15----------------------------------------|


--------------------------------------------------14--|
------------------------13--15-17-15--13--15--17------|
--14-16-14------14--16--------------------------------|
------------17----------------------------------------|
------------------------------------------------------|
------------------------------------------------------|


--15--0--0--14--0--0--12--0--0--10--0--0--|
------------------------------------------|
------------------------------------------|
------------------------------------------|
------------------------------------------|
------------------------------------------|


--14--12------------------------------------------|
----------15--13--12------------------------------|
----------------------14--12----------------------|
------------------------------16--14--12----------|
------------------------------------------15--14--|
--------------------------------------------------|


------------------------------------------------------|
------------------------------------------------------|
------------------------------------------------------|
----------------------------12-14-12------12--14--16--|
--12-14-12------12--14--15------------15--------------|
------------15----------------------------------------|


--------------------------------------------------14--|
------------------------13--15-17-15--13--15--17------|
--14-16-14------14--16--------------------------------|
------------17----------------------------------------|
------------------------------------------------------|
------------------------------------------------------|


--15--0--0--14--0--0--12--0--0--10--0--0--|
------------------------------------------|
------------------------------------------|
------------------------------------------|
------------------------------------------|
------------------------------------------|


--14-12-10---------------------------------------------------------|
-----------13-12-10------------------------------------------------|
--------------------12-11-9--------12-11-9-------------------------|
----------------------------10-9-7---------12-10-9-----------------|
---------------------------------------------------12-10-9---------|
-----------------------------------------------------------12-10-8-|


Riff D1 Guit 1 : 4 times
Riff D2 Guit 2 : 2 times
Riff E1 and E2


Guit 1 end Riff
-------------------------|-------------------------|
-------------------------|-------------------------|
-------------------------|-------------------------|
--7-------7-----8-----5--|--7-------7-----8-----5--|
-------0-----0-----0-----|-------0-----0-----0-----|
-------------------------|-------------------------|


-------------------------|-------------------------|-------------------------|
-------------------------|-------------------------|-------------------------|
-------------------------|-------------------------|-------------------------|
--7-------7-----8-----5--|--7-------7-----8-----5--|--7-------7-----8-----5--|
-------0-----0-----0-----|-------0-----0-----0-----|-------0-----0-----0-----|
-------------------------|-------------------------|-------------------------|


-------------------------|-------------------------|-------------------------|
-------------------------|-------------------------|-------------------------|
-------------------------|-------------------------|-------------------------|
--7-------7-----8-----5--|--7-------7-----8-----5--|--7-------7-----8-----5--|
-------0-----0-----0-----|-------0-----0-----0-----|-------0-----0-----0-----|
-------------------------|-------------------------|-------------------------|


-------------------||
-------------------||
-------------------||
--7----------------||
-------------------||
-------------------||


Guit 2 end Riff
-------------------------|-------------------------|
--10~-----10~---11~---8~-|--10~-----10~---11~---8~-|
-------------------------|-------------------------|
-------------------------|-------------------------|
-------------------------|-------------------------|
-------------------------|-------------------------|


-------------------------|-------------------------|-------------------------|
--10~-----10~---11~---8~-|--10~-----10~---11~---8~-|--10~-----10~---11~---8~-|
-------------------------|-------------------------|-------------------------|
-------------------------|-------------------------|-------------------------|
-------------------------|-------------------------|-------------------------|
-------------------------|-------------------------|-------------------------|


-------------------------|-------------------------|-------------------------|
--10~-----10~---11~---8~-|--10~-----10~---11~---8~-|--10~-----10~---11~---8~-|
-------------------------|-------------------------|-------------------------|
-------------------------|-------------------------|-------------------------|
-------------------------|-------------------------|-------------------------|
-------------------------|-------------------------|-------------------------|


--------------------||
--10~---------------||
--------------------||
--------------------||
--------------------||
--------------------||

For more Tabs Visit : http://www.metaltabs.fr.st
Visit the ARCH ENEMY official french fan clubhttp://www.darkenemy.net

  Visit MetalTabs.com for more metal tablature

bottom separator

Contact Us | Privacy Policy | Disclaimer
Copyright © 2001-2014 MetalTabs.com. All Rights Reserved.