top separator

Home

Forum

What's New

Submit a Tab

FAQ

Links

Contact Us

Link to Us

MuSpy.com

MetalTabs.com logo

Bands

0-9

A

B

C

D

E

F

G

H

I

J

K

L

M

N

O

P

Q

R

S

T

U

V

W

X

Y

Z

Search

What

Where
 

Cancer - "Into The Acid" Guitar Tab

Plain Text Version
More Cancer Tabs

Hits: 2903
Updated: 2005-08-24 15:34:07

 

By:

kin

sendpm.gif

email.gif

Important note
We did our best to reach Cancer and ask for their permission to publish this tab. Unfortunately they did not respond to our requests or we could not find a way to contact them. This tab is available online until Cancer tells us to take it down.


#----------------------------------PLEASE NOTE---------------------------------#
#This file is the author's own work and represents their interpretation of the #
#song. You may only use this file for private study, scholarship, or research. #
#Unless specified otherwise, this is NOT an official tab from the band members.#
#------------------------------------------------------------------------------#

  Visit MetalTabs.com for more metal tablature
  
Band:  Cancer
Album: To The Gory End
Song:  Into The Acid

Copyright (c)  Vinyl Solution / Restless 1990
Version 1.0 - 8/01/05

Transcribed By: Dominic Rodriguez (kin)
Email:          kalidice@email.com

Special Legend Key:

.    = Palm Mute
,    = Slight Palm Mute
-3-  = Triplet

Visit http://www.MetalTabs.com for more metal tabs.

Tuning: DGCFAD

Riff 1 x4

D|-----------------------------------------------|
A|-----------------------------------------------|
F|-----------------------------------------------|
C|-----------3---------7---------------3---------|
G|2------4/5-1---------5-7--2------4/5-1---------|
D|0--0-0-2/3---0-0-0-0---5--0--0-0-2/3---11111111|
     . .       . . . .         . .       ........

Riff 2 x4
               -3-                -3-
D|-------------------------------------|
A|-------------------------------------|
F|-------------444-4--------------555-5|
C|-------------222-2--------------333-3|
G|-------------------------------------|
D|000000000000-------000000000000------|
  ............       ............

Riff 3 x4

D|-----------------------------------------------|
A|-----------------------------------------------|
F|-----------------------------------------------|
C|-----------3---------7---------------3---------|
G|2------4/5-1---------5-7--2------4/5-1---------|
D|0--0-0-2/3---0-0-0-0---5--0--0-0-2/3---11111111|
     . .       . . . .         . .       ........

Riff 4 x4
               -3-                --3--
D|-----------------------------------------------|
A|-----------------------------------------------|
F|-----------------------------------------------|
C|-------------999-9-------------101010-10-------|
G|-------------777-7--------------8-8-8--8-------|
D|000000000000-------000000000000----------------|
  ............ ,,,   ............ , , ,

Riff 5 x1 [Under first solo, and very hard to hear.]

D|-----------------------------------------------------------------------------|
A|-----------------------------------------------------------------------------|
F|-----------------------------------------------------------------------------|
C|---------------------------------9-9-9--------------8-8-8------------10-10-10|
G|---------------------------------7-7-7--------------6-6-6-------------8--8--8|
D|11111111111111111111111111111111-------111111111111-------11111111111--------|
  ................................       ............       ...........

Riff 6 [Transfer riff]

D|---------------------------------------------------|
A|---------------------------------------------------|
F|-------------------9--9--9-----------------10-10-10|
C|-------------------7--7--7------------------8--8--8|
G|2====3-3-3-3-2====---------2====3-3-3-2====--------|
D|0====1-1-1-1-0====---------0====1-1-1-0====--------|
       . . . .                    .......

Riff 7 (Series of riffs)
[NOTE: Structure of this riff series is: I, A, I, B, I, C, I, D ]

             [I]           [A]     [B]     [C]      [D]
          -3-   -3-
D|----------------------|--------|-----|--------|--------|
A|----------------------|--------|-----|--------|--------|
F|----------------------|--------|9-9-9|--------|10-10-10|
C|----------------------|--------|7-7-7|--------|-8--8--8|
G|2-2-2-2-----2-----2---|3-3-3-3-|-----|3-3-3-3-|--------|
D|0-0-0-0-000-0-000-0-0-|1-1-1-1-|-----|1-1-1-1-|--------|
  . . . . ... . ... . .  . . . .        . . . .

Riff 8 x2
[NOTE: Structure is: I, A, I, B ]
                [I]                   [A]    [B]
               -3-
D|----------------------------------|-----|--------|
A|----------------------------------|-----|--------|
F|----------------------------------|-----|--------|
C|----------------------------------|9-9-9|10-10-10|
G|-------------333-3-3--------------|7-7-7|8--8--8-|
D|000000000000-111-1-1 000000000000-|-----|--------|
  ............ ,,, , , ............

Riff 9 x4 (Second half is underneath the second solo)

D|-----------------------------------------------|
A|-----------------------------------------------|
F|-----------------------------------------------|
C|-----------3---------7---------------3---------|
G|2------4/5-1---------5-7--2------4/5-1---------|
D|0--0-0-2/3---0-0-0-0---5--0--0-0-2/3---11111111|
     . .       . . . .         . .       ........

Riff 10 (Extension of riff 9 and end of song)

D|------------------------|
A|------------------------|
F|------------------------|
C|------------------------|
G|-----------------------2|
D|1111111111111111111111-0|
  ......................

  Visit MetalTabs.com for more metal tablature

bottom separator

Contact Us | Privacy Policy | Disclaimer | Legal Notice
Copyright © 2001-2014 MetalTabs.com. All Rights Reserved.