top separator

Home

Forum

What's New

Submit a Tab

FAQ

Links

Contact Us

Link to Us

MetalTabs.com logo

Bands

0-9

A

B

C

D

E

F

G

H

I

J

K

L

M

N

O

P

Q

R

S

T

U

V

W

X

Y

Z

Search

What

Where
 

Agiel - "Yaweh Is My Sacrifice" Guitar Tab

Plain Text Version
More Agiel Tabs

Hits: 3621
Rated: 5.00 out of 5 (1 vote)
Updated: 2005-08-24 15:33:00

 

By:

Yura

sendpm.gif

email.gif

Important note
We did our best to reach Agiel and ask for their permission to publish this tab. Unfortunately they did not respond to our requests or we could not find a way to contact them. This tab is available online until Agiel tells us to take it down.


#----------------------------------PLEASE NOTE---------------------------------#
#This file is the author's own work and represents their interpretation of the #
#song. You may only use this file for private study, scholarship, or research. #
#Unless specified otherwise, this is NOT an official tab from the band members.#
#------------------------------------------------------------------------------#

  Visit MetalTabs.com for more metal tablature
  
--- A G I E L ---
                           "Yaweh Is My Sacrifice"
                     From album: "Dark Pantheons Again Will Reign"
                     Copyright Unique Leader 2002 
                     Version 1.0 (August'05)
                     Transcribed by: Yura Kowalchuk
                     Contact:[yura@grindcore.net]
                             [yura_kowalchuk@mail.ru]
                     HOME PAGE: http://www.blood-scrapes.nm.ru
                                http://brutaltabs.musica.mustdie.ru


                            TABULATURE LEGEND:
                   " - tremolo             h - hammer on
                   ~ - vibrato             \ - slide down
                   p - pull off            / - slide down
                  tr - tremolo picking     ^ - pinch harmonics
                   = - sustained note      b - bend string
                p.m. - palm muting         t - tapping

Tuning is D [D, G, C, F, A, D]

[Riff 1 (x2)]
||--------------------------------|------------------------------||
||o-------------------------------|-----------------------------o||
||--------------------------------|-------------------------^----||
||--------2h5p2-2h5p2-------------|-------2h5p2-2h5p2-------2-^--||
||o----------------------3"-6"-3"-|----------------------3"---3-o||
||--0"...-------------0"----------|-0"...-------------0"---------||

[Riff 2]
|---------------------------------|---------------------------------|-
|---------------------------------|---------------------------------|-
|---------------------------------|---------------------------------|-
|-2-------2-------5-------5-------|-4-------4-------1-------1-------|-
|---3-2-3---3-2-3---3-2-3---3-2-3-|---3-2-3---3-2-3---3-2-3---3-2-3-|-
|---------------------------------|---------------------------------|-
| . . . . . . . . . . . . . . . . | . . . . . . . . . . . . . . . . |
|---------------------------------|---------------------------------|-
|---------------------------------|---------------------------------|-
|---------------------------------|---------------------------------|-
|-2-------2-------5-------5-------|-4-------4-------1-------1-------|-
|---3-2-3---3-2-3---3-2-3---3-2-3-|---3-2-3---3-2-3---3-2-3---3-2-3-|-
|---------------------------------|---------------------------------|-
  . . . . . . . . . . . . . . . .   . . . . . . . . . . . . . . . .

-|-----------------------------------|---------------------------------|
-|-----------------------------------|---------------------------------|
-|-----------------------------------|---------------------------------|
-|--2--------2-------5-------5-------|-4-------4-------1-------1-------|
-|----3-2-3----3-2-3---3-2-3---3-2-3-|---3-2-3---3-2-3---3-2-3---3-2-3-|
-|-----------------------------------|---------------------------------|
 |  . . . .  . . . . . . . . . . . . | . . . . . . . . . . . . . . . . |
-|-----------------------------------|---------------------------------|
-|-----------------------------------|---------------------------------|
-|-----------------------------------|---------------------------------|
-|-------------------9-------9-------|-7-------7-----------------------|
-|-10-------10-----------------------|-----------------9-------9-------|
-|----8-7-8----8-7-8---8-7-8---8-7-8-|---8-7-8---8-7-8---8-7-8---8-7-8-|
   .  . . . .  . . . . . . . . . . .   . . . . . . . . . . . . . . . .

[Riff 3 (x2)]
||-----------------------------------------------------------------------||
||o---------------------------------------------------------------------o||
||-------------5h8t11p8p5---------------7h10p7--------------6h9p6--------||
||--5h8t11p8p5------------8h11p8-7h10p7--------7h10p7-6h9p6-------6h9p6--||
||o---------------------------------------------------------------------o||
||-----------------------------------------------------------------------||

[Riff 4 (x2)]
||--------------------------------------------|-
||o-------------------------------------------|-
||--------------------------------------------|-
||-------11"..------10"..------7"..-----------|-
||o---------------------------------8"..-7"..-|-
||--0"..-------0"..-------5"..----------------|-
|                                             |
||--------------------------------------------|-
||o-------------------------------------------|-
||--------------------------------------------|-
||--------------------------------------------|-
||o------10"..------9"..-------6"............-|-
||--0"..-------0"..-------5"..----------------|-

-|--------------------------------------------||
-|-------------------------------------------o||
-|--------------------------------------------||
-|------11"..------10"..------7"..------^-----||
-|---------------------------------8"..-7~~--o||
-|-0"..-------0"..-------5"..-----------------||
 |                                             |
-|--------------------------------------------||
-|-------------------------------------------o||
-|--------------------------------------------||
-|--------------------------------------^-----||
-|------10"..------9"..-------6".......-7~~--o||
-|-0"..-------0"..-------5"..-----------------||

[Riff 5 (x2)]
||-------------------------------------|-
||o------------------------------------|-
||-----------6------------3------------|-
||---------5---5--------2---2---2------|-
||o------4-------4----1-------1-----6--|-
||--0000-----------00-------------5----|-
|                                      |
||-------------------------------------|-
||o------------------------------------|-
||-------------------------------------|-
||-----------8------------5---------^--|-
||o--------7---7--------4---4---4---3~-|-
||--0000-6-------6-00-3-------3---2----|-

-|---------------------------------------||
-|--------------------------------------o||
-|----------6------------3---------------||
-|--------5---5--------2---2-------------||
-|------4-------4----1------------------o||
-|-0000-----------00---------6tr9--5tr8--||
 |                                        |
-|---------------------------------------||
-|--------------------------------------o||
-|---------------------------------------||
-|----------8------------5---------------||
-|--------7---7--------4---4------------o||
-|-0000-6-------6-00-3-------3tr6--2tr5--||

[Riff 6]
|---------------------------------|---------------------------------|-
|---------------------------------|---------------------------------|-
|---------------------------------|---------------------------------|-
|-2-------2-------5-------5-------|-4-------4-------1-------1-------|-
|---3-2-3---3-2-3---3-2-3---3-2-3-|---3-2-3---3-2-3---3-2-3---3-2-3-|-
|---------------------------------|---------------------------------|-
| . . . . . . . . . . . . . . . . | . . . . . . . . . . . . . . . . |
|---------------------------------|---------------------------------|-
|---------------------------------|---------------------------------|-
|---------------------------------|---------------------------------|-
|-2-------2-------5-------5-------|-4-------4-------1-------1-------|-
|---3-2-3---3-2-3---3-2-3---3-2-3-|---3-2-3---3-2-3---3-2-3---3-2-3-|-
|---------------------------------|---------------------------------|-
  . . . . . . . . . . . . . . . .   . . . . . . . . . . . . . . . .

-|---------------------------------------------------------|-
-|---------------------------------------------------------|-
-|------------5h8t11p8p5---------------7h10p7--------------|-
-|-5h8t11p8p5------------8h11p8-7h10p7--------7h10p7-6h9p6-|-
-|---------------------------------------------------------|-
-|---------------------------------------------------------|-
 |                                                         |
-|---------------------------------------------------------|-
-|---------------------------------------------------------|-
-|------------5h8t11p8p5---------------7h10p7--------------|-
-|-5h8t11p8p5------------8h11p8-7h10p7--------7h10p7-6h9p6-|-
-|---------------------------------------------------------|-
-|---------------------------------------------------------|-

-|-----------------------------------|
-|-----------------------------------|
-|-6h9p6-------------5h8p5-----------|
-|-------6h9p6-5h8p5-----------------|
-|--------------------------2-8-7----|
-|--------------------------0-6-5----|
 |                          . .      |
-|-----------------------------------|
-|-----------------------------------|
-|-6h9p6-------------5h8p5-----------|
-|-------6h9p6-5h8p5-----------------|
-|--------------------------2-8-7----|
-|--------------------------0-6-5----|
                            . .

[Riff 7 (x4)] /under solo 1/
||-----------------------------------------||
||o---------------------------------------o||
||-----------------------------------------||
||-----------------------------------------||
||o----------------6"..-5"..-6"..---8-7---o||
||--0"..-5"..-6"..----------------0-6-5----||
                                  . .

[RIFF 4 (x2)]

[RIff 8 (x2)]
||---------------------------|--------------------------|-
||o--------------------------|--------------------------|-
||---------------------------|--------------------------|-
||---------------------------|--------------------------|-
||o-333----------------3~----|-333----------------3~----|-
||-----222333222-0-1-2----22-|----222333222-0-1-2----22-|-
|
||---------------------------|--------------------------|-
||o--------------------------|--------------------------|-
||---------------------------|--------------------------|-
||---------------------------|--------------------------|-
||o-333----------------3~----|-333----------------3~----|-
||-----222333222-0-1-2----22-|----222333222-0-1-2----22-|-

-|--------------------------|-[ending 1]-----------||
-|--------------------------|---------------------o||
-|--------------------------|----------------------||
-|--------------------------|----------------------||
-|-333----------------3~----|-333------------3"..-o||
-|----222333222-0-1-2----22-|----222333-2"..-------||
 |                          |                       |
-|--------------------------|-[ending 1]-----------||
-|--------------------------|---------------------o||
-|--------------------------|----------------------||
-|--------------------------|----------------2"..--||
-|-333----------------3~----|-333-------1"..------o||
-|----222333222-0-1-2----22-|----222333------------||

-|-[ending 2]----------|
-|---------------------|
-|---------------------|
-|---------------------|
-|-333------------3"..-|
-|----222333-2"..------|
 |                     |
-|-[ending 2]----------|
-|---------------------|
-|---------------------|
-|---------------------|
-|-333------------6"..-|
-|----222333-5"..------|

[RIFF 1 (x2)] [RIFF 5 (x2)]
[RIFF 2 /slow/)]

[Outro]
|--------------|
|--------------|
|--------------|
|--------------|
|-----7---8-7--|
|-7/--5-0-6-5--|
      . . .

[RIFF 7 (x4)] /under solo 2/

[Riff 9a (x2)]
||--------------------------------------------||
||o------------------------------------------o||
||--------------------------------------------||
||-----------------------------8==------------||
||o----------------6"..-5"..---6==-7---8-7---o||
||--0"..-5"..-6"..-----------0-6==-5-0-6-5----||
|                            .     . . .       |
||--------------------------------------------||
||o------------------------------------------o||
||--------------------------------------------||
||-----------------------------8==------------||
||o----------------6"..-5"..---6==-7---8-7---o||
||--0"..-5"..-6"..-----------0-6==-5-0-6-5----||
                             .     . . .

[Riff 9b (x2)]
||--------------------------------------------||
||o------------------------------------------o||
||--------------------------------------------||
||-----------------------------8==------------||
||o----------------6"..-5"..---6==-7---8-7---o||
||--0"..-5"..-6"..-----------0-6==-5-0-6-5----||
|                            .     . . .       |
||--------------------------------------------||
||o------------------------------------------o||
||--------------------------------------------||
||-----------------5"..-6"..---8==------------||
||o------5"..-6"..-------------6==-7---8-7---o||
||--0"..---------------------0-6==-5-0-6-5----||
                             .     . . .

END OF SONG

  Visit MetalTabs.com for more metal tablature

bottom separator

Contact Us | Privacy Policy | Disclaimer | Legal Notice
Copyright © 2001-2014 MetalTabs.com. All Rights Reserved.