top separator

Home

Forum

What's New

Submit a Tab

FAQ

Links

Contact Us

Link to Us

MuSpy.com

MetalTabs.com logo

Bands

0-9

A

B

C

D

E

F

G

H

I

J

K

L

M

N

O

P

Q

R

S

T

U

V

W

X

Y

Z

Search

What

Where
 

Lemuria - "Gerstenat" Guitar Tab

Plain Text Version
More Lemuria Tabs

Hits: 1992
Rated: 4.00 out of 5 (1 vote)
Updated: 2005-08-24 15:30:56

 

By:

Theoldman

sendpm.gif

email.gif

Important note
This tab is available online because we obtained explicit permission from Lemuria or their label.


#----------------------------------PLEASE NOTE---------------------------------#
#This file is the author's own work and represents their interpretation of the #
#song. You may only use this file for private study, scholarship, or research. #
#Unless specified otherwise, this is NOT an official tab from the band members.#
#------------------------------------------------------------------------------#

  Visit MetalTabs.com for more metal tablature
  
Band:  Lemuria
Album: Tales, Ale And Fire
Song:  Gerstenat (The Last Sip)

Version 1.0 -  1.8.2005

Transcribed By: theoldman
Email:          swordbearing@hotmail.com
________________________________________

.  - palm mute           /  - slide up to
\  - slide down to       ~  - vibrato
h  - hammer on           b  - Bend
p  - pull off            Suffixes for bend
t  - tap                 f  - full bend    h - half bend
ph - pinched harmonic    q  - quarter bend t - tap bend
*  - see comment         ^  - Hold bend    r release bend
x  - Stuccatto           ~  - vibrato bend
,  - slight palm mute    () - ghost note, sustained note
"  - tremolo note        <> - Trill

Tuning E A D G B E

Solo 1 (0:19-0:38)
|------------------------------------------------------------|
|----------------7---------------7---------------------------|
|6---6-8-9---6-------9-8-9---6-------9-8-9---6---8-6-----6---|
|----------------------------------------------------9-------|
|------------------------------------------------------------|
|------------------------------------------------------------|

|----------------------------------------------------------------|
|----------------7---------------7---------------9-7-------------|
|6---6-8-9---6-------9-8-9---6-------9-8-9---6-------9-8-6-------|
|--9---------------------------------------------------------9---|
|----------------------------------------------------------------|
|----------------------------------------------------------------|



Riff 1 (0:39-0:58)
|--------------------------------|--------------------------------|
|--------------------------------|--------------------------------|
|--------------------------------|--------------------------------|
|6-------6-------2-----------4---|6-------6-------2-----------4---|
|4---4-4-4---4-4-0---2---7---2---|4---4-4-4---4-4-0---2---7---2---|
|--------------------0---5-------|--------------------0---5-------|
     . .     . .                      . .     . .
|--------------------------------|--------------------------------|
|--------------------------------|--------------------------------|
|--------------------------------|--------------------------------|
|6-------6-------2-----------4---|6-------6-------2---4---6-------|
|4---4-4-4---4-4-0---2---7---2---|4---4-4-4---4-4-0---2---4-------|
|--------------------0---5-------|--------------------------------|
     . .     . .                      . .     . .



Riff 2 (0:59-1:01)
|------------------------------|
|------------------------------|
|------------------------------|
|6-------6---------------------|
|4---6---4---6---7------9------|
|----4-------4---5------7------|



Solo 2 (1:02-1:30)
|------------------------------------------------------------|
|----------------7---------------7---------------------------|
|6---6-8-9---6-------9-8-9---6-------9-8-9---6---8-6-----6---|
|----------------------------------------------------9-------|
|------------------------------------------------------------|
|------------------------------------------------------------|

|----------------------------------------------------------------|
|----------------7---------------7---------------9-7-------------|
|6---6-8-9---6-------9-8-9---6-------9-8-9---6-------9-8-6---6-8-|
|--9-------------------------------------------------------9-----|
|----------------------------------------------------------------|
|----------------------------------------------------------------|

|-----------------------------|
|-----------------------------|
|6-------9---8---6------------|
|----6------------------------|
|-----------------------------|
|-----------------------------|



Riff 3 (1:31-1:53)
|----------------------------------------------------------------|
|----------------------------------------------------------------|
|----------------------------------------------------------------|
|6-------6-------6---------------6-------6-------6-------6---4---|
|--4-4-4---4-4-4---4-4-4-7-6-4-7---4-4-4---4-4-4---4-4-4---------|
|----------------------------------------------------------------|
   . . .   . . .   . . . . . . .   . . .   . . .   . . .



Riff 4 (1:54-2:19)
|---------------------------------|---------------------------------|
|---------------------------------|---------------------------------|
|---------------------------------|---------------------------------|
|6-------6-------5--------9\8/9---|6-------6-------4--------2---4---|
|4-4444444-4444443-333333-7\6/7---|4-4444444-4444442-222222-0---2---|
|---------------------------------|---------------------------------|
   ......  ......  ......            ......  ......  ......



Riff 5 (2:20-2:22)
|---------------------|
|---------------------|
|---------------------|
|6--------------------|
|4--------------------|
|---------------------|



Solo 2 (2:23-2:51)

Riff 3 (2:52-3:15)



END

  Visit MetalTabs.com for more metal tablature

bottom separator

Contact Us | Privacy Policy | Disclaimer | Legal Notice
Copyright © 2001-2014 MetalTabs.com. All Rights Reserved.