top separator

Home

Forum

What's New

Submit a Tab

FAQ

Links

Contact Us

Link to Us

MuSpy.com

MetalTabs.com logo

Bands

0-9

A

B

C

D

E

F

G

H

I

J

K

L

M

N

O

P

Q

R

S

T

U

V

W

X

Y

Z

Search

What

Where
 

Mourning Beloveth - "In Mourning My Days" Bass Tab

Plain Text Version
More Mourning Beloveth Tabs

Hits: 2806
Rated: 5.00 out of 5 (4 votes)
Updated: 2006-11-07 06:24:54

 

By:

Paddy

sendpm.gif

email.gif

Important note
This tab is available online because we obtained explicit permission from Mourning Beloveth or their label.


#----------------------------------PLEASE NOTE---------------------------------#
#This file is the author's own work and represents their interpretation of the #
#song. You may only use this file for private study, scholarship, or research. #
#Unless specified otherwise, this is NOT an official tab from the band members.#
#------------------------------------------------------------------------------#

  Visit MetalTabs.com for more metal tablature
  
================================================================================
                       M O U R N I N G   B E L O V E T H

                                       -

                     I N   M O U R N I N G   M Y   D A Y S
================================================================================


                                      DUST
                           (c) Sentinel Records - 2000
                        http://www.mourningbeloveth.com/


                              Tune Down 1 & 1/2 Steps
                                     C# F# B E

                                  Tempo = 80 BPM
                               Time Signature = 8/4



                          -----------------------------
                                 Transcribed by

                                 PADDY MCMULLAN
                           stinkypoohpants@yahoo.co.uk

                                   Version 1.0
                             -----------------------

                             Tablature Symbols Used:


 p         -  Pull-Off
 h         -  Hammer-On
 (/)       -  Legato Slide (Blank space indicates length of slide)
 \         -  Slide Down to/Down From (Blank space indicates length of slide)
 /         -  Slide Up To/Up From (Blank space indicates length of slide)
 ( )       -  Ghost Note/Tied Note/Implied Note
 REST      -  Rest and sustain rest for duration of blank space
 |_3_|     -  Triplet notes


================================================================================
Rest for 3 bars
================================================================================

================================================================================
Intro: (Play once)
================================================================================


||------------------------------------|
||------------------------------------|
||--0--------------3------------------|
||------------------------------------|


|------------------------------------|------------------------------------|
|------------------------------------|------------------------------------|
|--0--------------3------------------|--0--------------3------------------|
|------------------------------------|------------------------------------|


|-----------------------------------|------------------------------------|
|-----------------------------------|------------------------------------|
|--2--------------------------------|--0--------------3------------------|
|-----------------------------------|------------------------------------|


|-----------------------------------||
|-----------------------------------||
|--2--------------------------------||
|-----------------------------------||



On the last bar the tempo gradually decreases to 65 BPM



================================================================================
Riff 1: (Play once)
================================================================================


|--------------------------------------------|
|--------------------------------------------|
|--0-------0-0--0--3--------------------3----|
|-----------------------3-------3-3--3-------|


|--------------------------------------------|
|--------------------------------------------|
|--------------------3---0---------3----2--3-|
|--1------0-1-3----3-------------------------|


|--------------------------------------------|
|--------------------------------------------|
|--0-------0-0--0--3--------------------3----|
|-----------------------3-------3-3--3-------|


|--------------------------------------------||
|--------------------------------------------||
|--------------------3---0---------3--2--3---||
|--1------0-1-3----3-------------------------||



================================================================================
Riff 2: (Play twice)
================================================================================


|--------------------------------------------|
|--------------------------------------------|
|--0-------0-0--0----------------------------|
|------------------3\  -1-------1-1--1----1/ |


|--------------------------------------------------| |
|--------------------------------------------------|*|
|----------------------------2h3-2---0-2-3-5-3-2---|*|
|--3----------(3)\-1----0------------------------3-| |



================================================================================
Riff 3: (Play once)
================================================================================


|--------------------------------------------|
|--------------------------------------------|
|--0-------0-0--0----------------------------|
|------------------3\  -1-------1-1--1----1/ |


|----------------------------------------|
|----------------------------------------|
|----------------------------------------|
|--3----------(3)\-1----0----------------|


|--------------------------------------------|
|--------------------------------------------|
|--0-------0-0--0----------------------------|
|------------------3\  -1-------1-1--1----1/ |


|-----------------------------------------||
|-----------------------------------------||
|--------------------------------------3--||
|--3----------(3)\-1----0-----------------||



================================================================================
Riff 4: (Play twice)
================================================================================


|--------------------------------------------|
|--------------------------------------------|
|--0-------0-0--0--3--------------------3----|
|-----------------------3-------3-3--3-------|


|--------------------------------------------|
|--------------------------------------------|
|--------------------3---0---------3----2--3-|
|--1------0-1-3----3-------------------------|


|--------------------------------------------|
|--------------------------------------------|
|--0-------0-0--0----------------------------|
|------------------3\  -1-------1-1--1----1/ |


|--------------------------------------------------| |
|--------------------------------------------------|*|
|----------------------------2h3-2---0-2-3-5-3-2---|*|
|--3----------(3)\-1----0------------------------3-| |



================================================================================
Riff 5: (Play 4 times)
================================================================================


|---------------------------------------------|
|---------------------------------------------|
|--0----0----0----0----1----1----1--1--1--1-0-|
|---------------------------------------------|


|----------------------------------------------||
|----------------------------------------------||
|----------------------0---2---3--5--3--2h3-2--||
|--3----3----3----3----------------------------||



================================================================================
Riff 6: (Play 4 times)
================================================================================


||-----------4-----------------4----(4/5)---|
||--2-----------------1---------------------|
||------------------------------------------|
||------------------------------------------|

                                   |__3__|
|-----------4-------------------------------| |
|--0----------------------------------------|*|
|--------------------4--------5----0--0--0--|*|
|-------------------------------------------| |



After this riff, hold the following note for 3 bars:


| |---------|
|4|---------|
|/|---------|
|4|--0------|



The time signature is now 4/4



================================================================================
Riff 7: (Play once)
================================================================================


||--------------------------------------------------|
||--------------------------------------------------|
||--0-0-0-0-0-0-2-2-2-2-2-2-------------3-3-3-3-3-3-|
||--------------------------1-1-1-1-1-1-------------|


|--------------------------------------------------||
|--------------------------------------------------||
|--0-0-0-0-0-0-2-2-2-2-2-2-------------3-3-3-3-3-3-||
|--------------------------1-1-1-1-1-1-------------||



================================================================================
Riff 8: (Play 4 times)
================================================================================


    |___3____| |____3___| |____3___| |____3___|
||----------------------------------------------||
||----------------------------------------------||
||--0--0-0-0-0-2--2-2-2-2-3--3-3-3-3-5--5-5-5-0-||
||----------------------------------------------||



================================================================================
Riff 9: (Play 4 times)
================================================================================


   |___3____| |____3___| |____3___| |____3___|
||--------------------------------------------||
||--------------------------------------------||
||---------------------------------1--1-1-1-0-||
||--1--1-1-1--1--1-1-1--1--1-1-1-0------------||



================================================================================
Riff 10: (Play 2 times)
================================================================================


||--------------------------------------------------|
||--------------------------------------------------|
||--0-0-0-0-0-0-3-3-3-3-3-3-------------5-5-5-5-5-5-|
||--------------------------1-1-1-1-1-1-------------|


|--------------------------------------------------| |
|--------------------------------------------------|*|
|--0-0-0-0-0-0-3-3-3-3-3-3-------------5-5-5-7-7-7-|*|
|--------------------------1-1-1-1-1-1-------------| |



================================================================================
Riff 11: (Play once)
================================================================================


||--------------------------------------------------|
||--------------------------------------------------|
||--0-0-0-0-0-0-2-2-2-2-2-2-------------3-3-3-3-3-3-|
||--------------------------1-1-1-1-1-1-------------|


   |____3___| |____3___| |____3___| |____3___|
|----------------------------------------------|
|----------------------------------------------|
|--0--0-0-0-0-2--2-2-2-2-3--3-3-3-3-5--5-5-5-0-|
|----------------------------------------------|


  |___3___|  |___3__|  |___3___| |____3____|
|--------------------------------------------|
|--------------------------------------------|
|---------------------------------1--1-1-1-0-|
|--1--1-1-1--1--1-1-1--1--1-1-1-0------------|


|--------------------------------------------------|-----R-           -||
|--------------------------------------------------|-----E-           -||
|--0-0-0-0-0-0-3-3-3-3-3-3-------------5-5-5-7-7-7-|--0--S-           -||
|--------------------------1-1-1-1-1-1-------------|-----T-           -||



================================================================================
End
================================================================================


Tab summary:        Intro x 1
                    Riff 1 x 1
                    Riff 2 x 2
                    Riff 3 x 1
                    Riff 4 x 2
                    Riff 5 x 4
                    Riff 6 x 4
                    Riff 7 x 1
                    Riff 8 x 4
                    Riff 9 x 4
                    Riff 10 x 2
                    Riff 11 x 1

                    END

  Visit MetalTabs.com for more metal tablature

bottom separator

Contact Us | Privacy Policy | Disclaimer | Legal Notice
Copyright © 2001-2014 MetalTabs.com. All Rights Reserved.