top separator

Home

Forum

What's New

Submit a Tab

FAQ

Links

Contact Us

Link to Us

MuSpy.com

MetalTabs.com logo

Bands

0-9

A

B

C

D

E

F

G

H

I

J

K

L

M

N

O

P

Q

R

S

T

U

V

W

X

Y

Z

Search

What

Where
 

Mourning Beloveth - "In Mourning My Days" Guitar Tab

Plain Text Version
More Mourning Beloveth Tabs

Hits: 3156
Rated: 4.95 out of 5 (42 votes)
Updated: 2006-11-07 06:24:46

 

By:

Paddy

sendpm.gif

email.gif

Important note
This tab is available online because we obtained explicit permission from Mourning Beloveth or their label.


#----------------------------------PLEASE NOTE---------------------------------#
#This file is the author's own work and represents their interpretation of the #
#song. You may only use this file for private study, scholarship, or research. #
#Unless specified otherwise, this is NOT an official tab from the band members.#
#------------------------------------------------------------------------------#

  Visit MetalTabs.com for more metal tablature
  
================================================================================
                       M O U R N I N G   B E L O V E T H

                                       -

                     I N   M O U R N I N G   M Y   D A Y S
================================================================================


                                      DUST
                           (c) Sentinel Records - 2000
                        http://www.mourningbeloveth.com/


                              Tune Down 1 & 1/2 Steps
                                  C# F# B E G# C#

                                  Tempo = 80 BPM
                               Time Signature = 8/4



                          -----------------------------
                                 Transcribed by

                                 PADDY MCMULLAN
                           stinkypoohpants@yahoo.co.uk

                                   Version 1.1
                      (Corrections Outlined at Bottom of Tab)
                             -----------------------

                             Tablature Symbols Used:


 P.M...    -  Palm Mute
 p         -  Pull-Off
 h         -  Hammer-On
 (/)       -  Legato Slide (Blank space indicates length of slide)
 \         -  Slide Down to/Down From (Blank space indicates length of slide)
 /         -  Slide Up To/Up From (Blank space indicates length of slide)
 ( )       -  Ghost Note/Tied Note/Implied Note
 REST      -  Rest and sustain rest for duration of blank space
 |_3_|     -  Triplet notes


================================================================================
Intro: Guitar 1 with clean tone (Play once through)
================================================================================


* Let notes ring wherever possible *


||-------------------------------------------------| |
||-------------------------------------------------| |
||--------4-----4--------------4-------4-----------|*|
||-----2-----2-----2--------2-------2-----2-----2--|*| X 2
||--0-----------------0--3-------------------3-----| |
||-------------------------------------------------| |


|----------------------------------------------|
|--------------0------------------0------------|
|--------5----------5----------5-------5-------|
|-----3-----3---------------3-------------3----|
|--0---------------------0---------------------|
|----------------------------------------------|


|-------------------------------------------------| |
|-------------------------------------------------| |
|--------4-----4--------------4-------4-----------|*|
|-----2-----2-----2--------2-------2-----2-----2--|*| X 2
|--0-----------------0--3-------------------3-----| |
|-------------------------------------------------| |


||-------------------------------------------------|
||-------------------------------------------------|
||--------0-----0--------------0-------0-----------|
||-----2-----2-----2--------2-------2-----2-----2--|
||--0-----------------0--3-------------------3-----|
||-------------------------------------------------|


|--------------------------------------------------| |
|-----------------------------------------0--------| |
|--------0-----0-----------------0-----------0-----|*|
|-----2-----2-----2-----2-----0--------1-----------|*| X 2
|--2-----------------2-----2--------2-----------2--| |
|--------------------------------------------------| |



On the last bar the tempo gradually decreases to 65 BPM



================================================================================
Riff 1a: Guitar 2 with heavy distortion (Play once)
================================================================================


||----------------------------------------|
||----------------------------------------|
||----------------------------------------|
||--2-----------/5----------------(7/10)\-|
||--0-----------------5------------x   ---|
||--------------------3-----------(5/8 )\-|


|------------------------------------------------|
|------------------------------------------------|
|------------------------------------------------|
|----------------------5\--2---------0-2-3--2----|
|--3------2-(3/5)------3\--0-------------------3-|
|--1------0-(1/3)----3---------------------------|
                    P.M

|----------------------------------------|
|----------------------------------------|
|----------------------------------------|
|--2------------5------------------5-----|
|--0------------3---0-5------------3---0-|
|---------------------3------------------|
                   ...

|----------------------------------------------||
|----------------------------------------------||
|----------------------------------------------||
|----------------------5\--2-------------------||
|--3------2-(3/5)------3\------------3--2--3---||
|--1------0-(1/3)----3-------------------------||
                    ...



================================================================================
Riff 1b: Guitar 3 with heavy distortion (Play once)
================================================================================


||----------------------------------------|
||----------------------------------------|
||----------------------------------------|
||--2------------5------------------5-----|
||--0------------3---0-5------------3---0-|
||---------------------3------------------|
                    ...

|-------------------------------------------|
|-------------------------------------------|
|-------------------------------------------|
|--------------------5---2------------------|
|--3------2-3-5----------0---------3----2---|
|--1------0-1-3----3------------------------|
          ...     ...

|----------------------------------------|
|----------------------------------------|
|----------------------------------------|
|--2------------5------------------5-----|
|--0------------3---0-5------------3---0-|
|---------------------3------------------|
                   ...

|-----------------------------------------||
|-----------------------------------------||
|-----------------------------------------||
|--------------------5---2----------------||
|--3------2-3-5----------0----------------||
|--1------0-1-3----3----------------------||
         ....     ...


================================================================================
Riff 2: Guitars 2 and 3 (Play 2 times)
================================================================================


||--------------------------------------|
||--------------------------------------|
||--------------------------------------|
||--2-----------------------------------|
||--0------------5\  -3--------------3/ |
||---------------3\  -1--------------1/ |


|--------------------------------------------------| |
|--------------------------------------------------| |
|--------------------------------------------------|*|
|--------------------------------------------------|*|
|--5----------(5)\-3----2----2h3-2---0-2-3-5-3-2---| |
|--3----------(3)\-1----0------------------------3-| |
                                     ..............


================================================================================
Lead Riff 1: Guitar 2 (Play once)
================================================================================


||-----------------------------------------------------|
||-----------------------------------------------------|
||-----------------------------------------------------|
||-/7--------(7)/9---10---(10)\7----------10--9---10p9-|
||-----------------------------------------------------|
||-----------------------------------------------------|

                   |_3_|                              |_3__|
|------------------------------------------------------------|
|------------------------------------------------------------|
|------------------------------------------------------------|
|--------------10--9h10p9-------------------5-(7/10)--9h10p9-|
|--10---------------------10\ 7------5-7-8-------------------|
|------------------------------------------------------------|


|--------------------------------------------------|
|--------------------------------------------------|
|--------------------------------------------------|
|--7--------9----10---(10)\7----------10--9---10p9-|
|--------------------------------------------------|
|--------------------------------------------------|

                   |_3__|                             |_3__|
|------------------------------------------------------------||
|------------------------------------------------------------||
|------------------------------------------------------------||
|--------------10--9h10p9-------------------5-(7/10)--9h10p9-||
|--10---------------------10\ 7------5-7-8-------------------||
|------------------------------------------------------------||
                                     ...



================================================================================
Rhythm for Lead Riff 1: Guitar 3 (Play once)
================================================================================


||--------------------------------------|
||--------------------------------------|
||--------------------------------------|
||--2-----------------------------------|
||--0------------5\  -3--------------3/ |
||---------------3\  -1--------------1/ |


|----------------------------------------|
|----------------------------------------|
|----------------------------------------|
|----------------------------------------|
|--5----------(5)\-3----2----------------|
|--3----------(3)\-1----0----------------|


|--------------------------------------|
|--------------------------------------|
|--------------------------------------|
|--2-----------------------------------|
|--0------------5\  -3--------------3/ |
|---------------3\  -1--------------1/ |


|-----------------------------------------||
|-----------------------------------------||
|-----------------------------------------||
|-----------------------------------------||
|--5----------(5)\-3----2--------------3--||
|--3----------(3)\-1----0-----------------||



================================================================================
Riff 3a: Guitar 2 (Play once)
================================================================================


||--------------------------------------------|
||--------------------------------------------|
||--------------------------------------------|
||--2------------5----------------------------|
||--0------------3p  0-5------------(7/10)\---|
||---------------------3------------(5/8 )\---|


|-------------------------------------------|
|-------------------------------------------|
|-------------------------------------------|
|----------------------5\ -2----------------|
|--3------2-(3/5)------3\ -0----------------|
|--1------0-(1/3)----3----------------------|
         ...        ...

|--------------------------------------|
|--------------------------------------|
|--------------------------------------|
|--2-----------------------------------|
|--0------------5\  -3--------------3/-|
|---------------3\  -1--------------1/-|


|--------------------------------------------------|
|--------------------------------------------------|
|--------------------------------------------------|
|--------------------------------------------------|
|--5----------(5)\-3----2----2h3-2---0-2-3-5-3-2---|
|--3----------(3)\-1----0------------------------3-|
                                     ..............

|---------------------------------------|
|---------------------------------------|
|---------------------------------------|
|--2------------5------------------5\---|
|--0------------3p  0-5------------3\---|
|---------------------3-----------------|


|-------------------------------------------|
|-------------------------------------------|
|-------------------------------------------|
|----------------------5\--2----------------|
|--3------2-(3/5)------3\--0----------------|
|--1------0-(1/3)----3----------------------|
         ...        ...

|--------------------------------------|
|--------------------------------------|
|--------------------------------------|
|--2-----------------------------------|
|--0------------5\  -3--------------3/ |
|---------------3\  -1--------------1/ |


|--------------------------------------------------||
|--------------------------------------------------||
|--------------------------------------------------||
|--------------------------------------------------||
|--5----------(5)\-3----2----2h3-2---0-2-3-5-3-2-3-||
|--3----------(3)\-1----0--------------------------||
                                     ..............



This riff is a hybrid between riffs 1 and 2



================================================================================
Riff 3b: Guitar 3 (Play once)
================================================================================


||----------------------------------------|
||----------------------------------------|
||----------------------------------------|
||--2------------5------------------5-----|
||--0------------3p  0-5------------3---0-|
||---------------------3------------------|


|-------------------------------------------|
|-------------------------------------------|
|-------------------------------------------|
|--------------------5---2------------------|
|--3------2-3-5----------0---------3----2---|
|--1------0-1-3----3------------------------|
         ....     ...

|--------------------------------------|
|--------------------------------------|
|--------------------------------------|
|--2-----------------------------------|
|--0------------5\  -3--------------3/ |
|---------------3\  -1--------------1/ |


|--------------------------------------------------|
|--------------------------------------------------|
|--------------------------------------------------|
|--------------------------------------------------|
|--5----------(5)\-3----2----2h3-2---0-2-3-5-3-2---|
|--3----------(3)\-1----0------------------------3-|
                                     ..............

|----------------------------------------|
|----------------------------------------|
|----------------------------------------|
|--2------------5------------------5-----|
|--0------------3p  0-5------------3---0-|
|---------------------3------------------|


|-------------------------------------------|
|-------------------------------------------|
|-------------------------------------------|
|--------------------5---2------------------|
|--3------2-3-5----------0---------3----2---|
|--1------0-1-3----3------------------------|
         ....     ...

|--------------------------------------|
|--------------------------------------|
|--------------------------------------|
|--2-----------------------------------|
|--0------------5\  -3--------------3/ |
|---------------3\  -1--------------1/ |



|--------------------------------------------------||
|--------------------------------------------------||
|--------------------------------------------------||
|--------------------------------------------------||
|--5----------(5)\-3----2----2h3-2---0-2-3-5-3-2---||
|--3----------(3)\-1----0------------------------3-||
                                     ..............



This riff is a hybrid between riffs 1 and 2



================================================================================
Riff 4a: Guitar 2 (Play 4 times)
================================================================================


||-----------------------------------------------------|
||-----------------------------------------------------|
||-----------------------------------------------------|
||-------2--(2)--3----2----------2h(3/5)---7\5--3--2---|
||--0--------------------3--1------------------------3-|
||-----------------------------------------------------|

                  |_3_|
|----------------------------------------------------| |
|----------------------------------------------------| |
|----------------------------------------------------|*|
|-------2----3----2h3p2-0--2---4---5--7--5--(4/5)-4--|*|
|--------------------------0---2---3--5--3--(2/3)-2--| |
|--3-------------------------------------------------| |



The ghost note in bar 1 is only played the first time



================================================================================
Riff 4b: Guitar 3 (Play 2 times)
================================================================================


||--------------------------------------|
||--------------------------------------|
||--------------------------------------|
||--2----------------3------------------|
||--0----------------1--------------1-0-|
||--------------------------------------|
                                   .....

|---------------------------------------------|
|---------------------------------------------|
|---------------------------------------------|
|-------------------2---4---5--7--5--(4/5)-4--|
|--5----------------0---2---3--5--3--(2/3)-2--|
|--3------------------------------------------|


|--------------------------------------------------|
|--------------------------------------------------|
|--------------------------------------------------|
|-------2----3----2----------2h(3/5)---7\5--3--2---|
|--0-----------------3--1------------------------3-|
|--------------------------------------------------|

                  |_3_|
|----------------------------------------------------||
|----------------------------------------------------||
|----------------------------------------------------||
|-------2----3----2h3p2-0--2---4---5--7--5--(4/5)-4--||
|--------------------------0---2---3--5--3--(2/3)-2--||
|--3-------------------------------------------------||



================================================================================
Riff 5a: Guitar 2 (Play twice)
================================================================================


||---------------------------------------------|
||---------------------------------------------|
||-----------4------(4)\----------4----(4/5)\--|
||--2--------------------1---------------------|
||---------------------------------------------|
||---------------------------------------------|

                                      |__3__|
|----------------------------------------------|
|----------------------------------------------|
|-----------4------(4)\------------------------|
|--0-----------------------------7----2--2--2--|
|-----------------------4--------5----0--0--0--|
|----------------------------------------------|

                                 |____3____| |____3____|
|--------------------------------------------------------|
|--------------------------------------------------------|
|-----------4------(4)\----------4--5--4h5p4-2--4--2h4p2-|
|--2--------------------1--------------------------------|
|--------------------------------------------------------|
|--------------------------------------------------------|

                                      |__3__|
|----------------------------------------------| |
|----------------------------------------------| |
|-----------4------(4)\------------------------|*|
|--0-----------------------------7----2--2--2--|*|
|-----------------------4--------5----0--0--0--| |
|----------------------------------------------| |



After playing this riff in it's entirety, hold the following chord for 3 bars:


| |---------||
| |---------||
|4|---------||
|/|--2------||
|4|--2------||
| |--0------||



The time signature is now 4/4



================================================================================
Riff 5b: Guitar 3 (Play twice)
================================================================================


||---------------------------------------------|
||---------------------------------------------|
||-----------4------(4)\----------4----(4/5)\--|
||--2--------------------1---------------------|
||---------------------------------------------|
||---------------------------------------------|

                                      |__3__|
|----------------------------------------------|
|----------------------------------------------|
|-----------4------(4)\------------------------|
|--0-----------------------------7----2--2--2--|
|-----------------------4--------5----0--0--0--|
|----------------------------------------------|


|------------------------------------------|
|------------------------------------------|
|-----------4------(4)\----------4----4----|
|--2--------------------1------------------|
|------------------------------------------|
|------------------------------------------|

                                      |__3__|
|----------------------------------------------| |
|----------------------------------------------| |
|-----------4------(4)\------------------------|*|
|--0-----------------------------7----2--2--2--|*|
|-----------------------4--------5----0--0--0--| |
|----------------------------------------------| |



After playing this riff in it's entirety, hold the following chord for 1 bar:


| |---------||
| |---------||
|4|---------||
|/|--2------||
|4|--2------||
| |--0------||



The time signature is now 4/4



================================================================================
Riff 6: Guitar 3 (Play once)
================================================================================


||--------------------------------------------------|
||--------------------------------------------------|
||--------------------------------------------------|
||--------------------------------------------------|
||--0-0-0-0-0-0-2-2-2-2-2-2-------------3-3-3-3-3-3-|
||--------------------------1-1-1-1-1-1-------------|
   .................................................

|--------------------------------------------------|
|--------------------------------------------------|
|--------------------------------------------------|
|--------------------------------------------------|
|--0-0-0-0-0-0-2-2-2-2-2-2-------------3-3-3-3-3-3-|
|--------------------------1-1-1-1-1-1-------------|
  .................................................

|--------------------------------------------------|
|--------------------------------------------------|
|--------------------------------------------------|
|--------------------------------------------------|
|--0-0-0-0-0-0-2-2-2-2-2-2-------------3-3-3-3-3-3-|
|--------------------------1-1-1-1-1-1-------------|
  .................................................

|--------------------------------------------------||
|--------------------------------------------------||
|--------------------------------------------------||
|--------------------------------------------------||
|--0-0-0-0-0-0-2-2-2-2-2-2-------------3-3-3-3-3-3-||
|--------------------------1-1-1-1-1-1-------------||
  .................................................



Guitar 2 joins in on bar 3



================================================================================
Riff 7: Guitars 2 and 3 (Play 4 times)
================================================================================


    |___3____| |____3___| |____3___| |____3___|
||----------------------------------------------| |
||----------------------------------------------| |
||----------------------------------------------|*|
||--2--2-2-2-2-4--4-4-4-4-5--5-5-5-5-7--7-7-7---|*|
||--0--0-0-0-0-2--2-2-2-2-3--3-3-3-3-5--5-5-5-0-| |
||----------------------------------------------| |
                             .......    ........



During this riff, and the next riff, the tempo gradually increases to 85 BPM



================================================================================
Riff 8: Guitars 2 and 3 (Play 4 times)
================================================================================


   |____3___| |__3___| |____3___| |____3_____|
||--------------------------------------------| |
||--------------------------------------------| |
||--------------------------------------------|*|
||---------------------------------3----------|*|
||--3--3-3-3--3--3-3-3--3--3-3-3---1--1-1-1-0-| |
||--1--1-1-1--1--1-1-1--1--1-1-1-0------------| |
   ...............................    .......



================================================================================
Riff 9: Guitars 2 and 3 (Play twice)
================================================================================


||--------------------------------------------------|
||--------------------------------------------------|
||--------------------------------------------------|
||--------------------------------------------------|
||--0-0-0-0-0-0-3-3-3-3-3-3-------------5-5-5-5-5-5-|
||--------------------------1-1-1-1-1-1-------------|
   ................................................

|--------------------------------------------------| |
|--------------------------------------------------| |
|--------------------------------------------------|*|
|--------------------------------------------------|*|
|--0-0-0-0-0-0-3-3-3-3-3-3-------------5-5-5-7-7-7-| |
|--------------------------1-1-1-1-1-1-------------| |
 ..................................................



================================================================================
Riff 10: Guitars 2 and 3 (Play once)
================================================================================


||--------------------------------------------------|
||--------------------------------------------------|
||--------------------------------------------------|
||--------------------------------------------------|
||--0-0-0-0-0-0-2-2-2-2-2-2-------------3-3-3-3-3-3-|
||--------------------------1-1-1-1-1-1-------------|
   .................................................

   |____3___| |____3___| |____3___| |___3____|
|----------------------------------------------|
|----------------------------------------------|
|----------------------------------------------|
|--2--2-2-2-2-4--4-4-4-4-5--5-5-5-5-7--7-7-7---|
|--0--0-0-0-0-2--2-2-2-2-3--3-3-3-3-5--5-5-5-0-|
|----------------------------------------------|
                            ........   .......

  |___3___| |___3___| |___3_____| |___3____|
|--------------------------------------------|
|--------------------------------------------|
|--------------------------------------------|
|---------------------------------3----------|
|--3--3-3-3--3--3-3-3--3--3-3-3---1--1-1-1-0-|
|--1--1-1-1--1--1-1-1--1--1-1-1-0------------|
  ...............................    ........

|--------------------------------------------------|-------------------||
|--------------------------------------------------|-----R-           -||
|--------------------------------------------------|--2--E-           -||
|--------------------------------------------------|--2--S-           -||
|--0-0-0-0-0-0-3-3-3-3-3-3-------------5-5-5-7-7-7-|--0--T-           -||
|--------------------------1-1-1-1-1-1-------------|-------------------||
  .................................................



This riff is a hybrid of riffs 6, 7, 8 & 9



================================================================================
End
================================================================================


Tab summary:        Intro x 1
                    Riff 1a + 1b x 1
                    Riff 2 x 2
                    Lead Riff 1 + Rhythm for Lead Riff 1 x 1
                    Riff 3a + 3b x 1
                    Riff 4a x 4 + Riff 4b x 2
                    Riff 5a + 5b x 2
                    Riff 6 x 1
                    Riff 7 x 4
                    Riff 8 x 4
                    Riff 9 x 2
                    Riff 10 x 1

                    END


-----------------------
Corrections (29/10/05):
-----------------------

* Fixed incorrect slide directions

  Visit MetalTabs.com for more metal tablature

bottom separator

Contact Us | Privacy Policy | Disclaimer | Legal Notice
Copyright © 2001-2014 MetalTabs.com. All Rights Reserved.