top separator

Home

Forum

What's New

Submit a Tab

FAQ

Links

Contact Us

Link to Us

MetalTabs.com logo

Bands

0-9

A

B

C

D

E

F

G

H

I

J

K

L

M

N

O

P

Q

R

S

T

U

V

W

X

Y

Z

Search

What

Where
 

Destroyer 666 - "Lone Wolf Winter" Guitar Tab

Plain Text Version
More Destroyer 666 Tabs

Hits: 6085
Rated: 4.20 out of 5 (5 votes)
Updated: 2005-08-17 16:32:53

 

By:

nyanchuk

sendpm.gif

email.gif

Important note
This tab is available online because we obtained explicit permission from Destroyer 666 or their label.


#----------------------------------PLEASE NOTE---------------------------------#
#This file is the author's own work and represents their interpretation of the #
#song. You may only use this file for private study, scholarship, or research. #
#Unless specified otherwise, this is NOT an official tab from the band members.#
#------------------------------------------------------------------------------#

  Visit MetalTabs.com for more metal tablature
  
Band:  Destroyer 666
Album: Phoenix Rising
Song:  Lone Wolf Winter

Copyright (c)  Renegade Records (2000)

Transcribed By: nyanchuk
Email:          uklearpower@hotmail.com


Tuning: B E A D F# B


***There is a third, lead guitar present quite often in this song,
sometime echoing the rythem,sometimes "soloing" or whatever.
I am leaving this out for now because it isn't essential to the song
 (though i plan on tabbing it later on when i have the time)
and i wanted to get a song up, and i dont like putting incomplete parts
on my tabs.***




Intro (fade in):
|----------------------------------
|----------------------------------
|-66666666999999996666666699999999-
|-77777777777777777777777777777777-

 -----------------------------------|
 -----------------------------6-6-6-|
 -66666666999999996666666699994-4-4-|
 -7777777777777777777777777777------|



Riff A1:                                   play x3
|----------|--|-------------------------*-------|
|---9-8-46-|x4|-----------------------------6-6-|
|-66-6-6---|  |-66666666999999996666666699994-4-|
|----------|--|-7777777777777777777777777777----|
notes: (2nd time pickslide over the *)

Riff A2:
|----------|--|-----------------------------------|
|---9-8-46-|x4|-----------------------------6-6-6-|
|-66-6-6---|  |-66666666999999996666666699994-4-4-|
|----------|--|-7777777777777777777777777777------|



Riff B:                       play x2
|----------------------------------
|----------------------------------
|---88--99--9955----88--99--88--6--
|-66--66--66----6666--66--66--77-7-

 ----------------------------------|
 ----------------------------------|
 ---88--99--9955----88--99--6---8--|
 -66--66--66----6666--66--77-799-9-|



Riff C:       play x4
|------------------|
|---666666---------|
|-44--------99--88-|
|---------77--66---|
|                  |
|------------------|
|-666--------------|
|-444-----99--88---|
|---------77--66---|


play Riff B x1
play Riff C x4

play Riff A1 x2 (Lead guitar present)

play Riff A1 x2 (Lead guitar present)


Fill part 1:
|-------------------------\\\\\\\\-
|-8-8-----8-8-----8-8-----\\\\\\\\-
|-6-6-----6-6-----6-6--------------
|----------------------------------
|
|-------------------------------------
|-8-88t(9)8-88t(9)8-88t(9)8-8-8111111-
|-6-6-----6-6-----6-6-----6-6-6-9-9-9-
|-------------------------------------


 -------------------------\\\\\\\\-|
 -8-8-----8-8-----8-8-----\\\\\\\\-|
 -6-6-----6-6-----6-6--------------|
 ----------------------------------|
                                    |
 -------------------------------------|
 -8-88t(9)8-88t(9)8-88t(9)8-8-8-9-9-9-|
 -6-6-----6-6-----6-6-----6-6-6-6-6-6-|
 -------------------------------------|

Fill part 2: (Lead guitar present)
|-------------------------\\\\\\-
|-8-----8889996--8--4--6--\\\\\\-
|-6-----6667774--6--2--4---------
|--------------------------------
|
|--------------------------------
|-8-----8889996--8--4--6--888999-
|-6-----6667774--6--2--4--666666-
|--------------------------------

 -------------------------|
 -8-----8889996--8--4--6--|
 -6-----6667774--6--2--4--|
 -------------------------|
                          |
 -------------------------|
 -8-----8889996--8--4--6--|
 -6-----6667774--6--2--4--|
 -------------------------|



Fill part 3:
|-----------------------555--------------------------
|--55-55-556535-55-55-56-----55-55-556535-55-55---4--
|-3--3--3------3--3--3------3--3--3------3--3--6--2--
|----------------------------------------------4-----
|
|----------------------------------------------------
|-5-(let ring)------------------------------------4--
|-3--------------------------------------------6--2--
|----------------------------------------------4-----

 -----------------------555--------------------------|
 --55-55-556535-55-55-56-----55-55-556535-55-55---4--|
 -3--3--3------3--3--3------3--3--3------3--3--6--2--|
 ----------------------------------------------4-----|
                                                     |
 ---------------------------\\\\\\\\\\\\\\\\\\-------|
 -5-------------------------\\\\\\\\\\\\\\\\\\----4--|
 -3--------------------------------------------6--2--|
 ----------------------------------------------4-----|
  pm



Riff D:                                         play x2
|-----------------------555--------------------------|
|--55-55-556535-55-55-56-----55-55-556535-55-55---4--|
|-3--3--3------3--3--3------3--3--3------3--3--6--2--|
|----------------------------------------------4-----|

play Riff C x4
play Riff D x2 (Lead guitar present)

Riff C2:      play x4
|------------------|
|---666666---------|
|-44--------99--88-|
|---------77--66---|
|                  |
|------------------|
|-6-6--------------|
|-4-4-----99998888-|
|---------77776666-|


Riff A3:
|----------|--|-\\\\\\\\\\\\\\\\\\\\\\\\\\\\\\\-|
|----------|x4|-\\\\\\\\\\\\\\\\\\\\\\\\\\\\\\\-|
|----------|  |-\\\\\\\\\\\\\\\\\\\\\\\\\\\\\\\-|
|----------|--|---------------------------------|
|                                               |
|----------|--|---------------------------------|
|---9-8-46-|x4|-----------------------------6-6-|
|-66-6-6---|  |-66666666999999996666666699994-4-|
|----------|--|-7777777777777777777777777777----|


play Riff A1 x2 (Lead guitar present)


Riff E:                    x4
|--------------------------|
|--88888--4--6-88888--3--4-|
|-666666222444666666111222-|
|--------------------------|
|                          |
|--------------------------|
|--88888-44-66-88888-33-44-|
|-6-----2--4--6-----1--2---|
|--------------------------|

play Riff E x2
play Riff E x2 (Lead guitar present)
play Riff E x4 (Lead guitar present)
play Riff E x4 (Lead guitar present)
play Riff E x4 (Lead guitar present)
play Riff E x3 (Lead guitar present)


End:
|--------------------------|
|--888884--6--8------------|
|-6666662--4--6------------|
|--------------------------|
|                          |
|--------------------------|
|--888884--6--8------------|
|-6-----2--4--6------------|
|--------------------------|




***

  Visit MetalTabs.com for more metal tablature

bottom separator

Contact Us | Privacy Policy | Disclaimer | Legal Notice
Copyright © 2001-2014 MetalTabs.com. All Rights Reserved.