top separator

Home

Forum

What's New

Submit a Tab

FAQ

Links

Contact Us

Link to Us

MuSpy.com

MetalTabs.com logo

Bands

0-9

A

B

C

D

E

F

G

H

I

J

K

L

M

N

O

P

Q

R

S

T

U

V

W

X

Y

Z

Search

What

Where
 

Destroyer 666 - "The Eternal Glory Of War" Guitar Tab

Plain Text Version
More Destroyer 666 Tabs

Hits: 3505
Rated: 3.00 out of 5 (1 vote)
Updated: 2005-08-17 16:32:47

 

By:

nyanchuk

sendpm.gif

email.gif

Important note
This tab is available online because we obtained explicit permission from Destroyer 666 or their label.


#----------------------------------PLEASE NOTE---------------------------------#
#This file is the author's own work and represents their interpretation of the #
#song. You may only use this file for private study, scholarship, or research. #
#Unless specified otherwise, this is NOT an official tab from the band members.#
#------------------------------------------------------------------------------#

  Visit MetalTabs.com for more metal tablature
  
Band:  Destroyer 666
Album: Phoenix Rising
Song:  The Eternal Glory Of War

Copyright (c)  Renegade Records (2000)

Transcribed By: nyanchuk
Email:          uklearpower@hotmail.com

Tuning: EADGBE



Marching.......



Lead A:               play x2
|--------------------------|
|-444446777746777747666666-|
|--------------------------|
|--------------------------|


Chorus With Lead:     play x2
|--------------------------|
|-444446777746777747666666-|
|--------------------------|
|--------------------------|
|                          |
|--------------------------|
|--------------------------|
|-4---467---467---47666666-|
|-2---245---245---25444444-|

Riff A:               play x4
|--------------------------|
|-444446777746777747666666-|
|--------------------------|
|--------------------------|
|                          |
|--------------------------|
|--------------------------|
|-4-446-7-7-467-7-476-666--|
|-2-224-5-5-245-5-254-444--|

Riff B:               play x4
|-44446422227666667644444--|
|------------------------4-|
|--------------------------|
|--------------------------|
|                          |
|--------------------------|
|--------------------------|
|-4-446-7-7-467-7-476-666--|
|-2-224-5-5-245-5-254-444--|


Chorus No Lead:       play x2
|--------------------------|
|--------------------------|
|-4---467---467---47666666-|
|-2---245---245---25444444-|




Verse:                play x4
|--------------------------|
|-444446777747666647666666-|
|--------------------------|
|--------------------------|
|                          |
|--------------------------|
|--------------------------|
|-4-446-7-7-476-6-476-666--|
|-2-224-5-5-254-4-254-444--|


play Riff B x4
play Chorus No Lead x4

play Riff A x2
play Riff A x4
play Riff B x4
play Chorus No Lead x4

play Verse x4
play Riff B x4
play Chorus No Lead x2

play Riff A x4
play Riff B x4


Bridge:               play x4
|--------------------------|
|--------------------------|
|-777777777777666666666666-|
|-555555555555444444444444-|


play Riff A x4
play Chorus With Lead x4

End:
|--------------------------|
|-4------------------------|
|-4------------------------|
|-2------------------------|



***

  Visit MetalTabs.com for more metal tablature

bottom separator

Contact Us | Privacy Policy | Disclaimer | Legal Notice
Copyright © 2001-2014 MetalTabs.com. All Rights Reserved.