top separator

Home

Forum

What's New

Submit a Tab

FAQ

Links

Contact Us

Link to Us

MuSpy.com

MetalTabs.com logo

Bands

0-9

A

B

C

D

E

F

G

H

I

J

K

L

M

N

O

P

Q

R

S

T

U

V

W

X

Y

Z

Search

What

Where
 

Coroner - "D.O.A." Guitar Tab

Plain Text Version
More Coroner Tabs

Hits: 4265
Rated: 3.25 out of 5 (4 votes)
Updated: 2005-10-16 01:49:27

 

By:

MetalThrashingMad

sendpm.gif

email.gif

Important note
We did our best to reach Coroner and ask for their permission to publish this tab. Unfortunately they did not respond to our requests or we could not find a way to contact them. This tab is available online until Coroner tells us to take it down.


#----------------------------------PLEASE NOTE---------------------------------#
#This file is the author's own work and represents their interpretation of the #
#song. You may only use this file for private study, scholarship, or research. #
#Unless specified otherwise, this is NOT an official tab from the band members.#
#------------------------------------------------------------------------------#

  Visit MetalTabs.com for more metal tablature
  
D.O.A.
                             As recorded by Coroner
                       (From the 1991 Album NO MORE COLOR)
                            Copyright (c) Noise 1991

Arranged by Coroner
Transcribed by Steve Rubaszek
Version 1.0 - September 29, 2005


Gtr I (E A D G B E) - 'Rhythm'
Gtr II (E A D G B E) - 'Lead'


   0:00
    Q=135
   12/8
    Gtr I
    PM----|
||---------------------------------------------------|
||o--------------------------------------------------|
||---------------------------------------------------|
||----------5-(5)------------------------------------|
||o---------5-(5)------------------------------------|
||--0-0-0-0-3-(3)------------------------------------|
|
|   Gtr II
||-------------------------------10-10---------------|
||o---------------------------12-------12------------|
||-------------------------12-------------12---------|
||--------------------9-12-------------------12-9----|
||o----------------10-----------------------------10-|
||---------------------------------------------------|


  PM--|
|---------------------------------------------|
|---------------------------------------------|
|---------------------------------------------|
|-------4-(4)---------------------------------|
|-------4-(4)---------------------------------|
|-0-0-0-2-(2)---------------------------------|
|
|---------------------------9-9---------------|
|------------------------11-----11------------|
|---------------------11-----------11---------|
|----------------8-11-----------------11-8----|
|--------------9---------------------------9--|
|---------------------------------------------|


  PM----|
|----------------------------------------------|
|----------------------------------------------|
|----------------------------------------------|
|---------3-(3)--------------------------------|
|---------3-(3)--------------------------------|
|-0-0-0-0-1-(1)--------------------------------|
|
|-----------------------------8-8--------------|
|--------------------------10-----10-----------|
|-----------------------10-----------10--------|
|------------------7-10-----------------10-7---|
|----------------8---------------------------8-|
|----------------------------------------------|


 1.
  PM--|
|----------------------------------------||
|---------------------------------------o||
|----------------------------------------||
|-------2-(2)----------------------------||
|-------2-(2)---------------------------o||
|-0-0-0-0-(0)----------------------------||
|
|------------------------7-7-------------||
|----------------------8-----8----------o||
|--------------------9---------9---------||
|----------------5-9-------------9-5-----||
|--------------7---------------------7--o||
|----------------------------------------||


 0:18
  2.      Q=180
 3/8     11/4
  PM--|
|-------|---------------------------------------------|
|-------|---10-------8----8-----6----6-----4----4-----|
|-------|------10------8----8-----7----7-----4----4---|
|-------|-2-------11----------9----------7----------5-|
|-------|-2-------------------------------------------|
|-0-0-0-|-0-------------------------------------------|


 0:22
 4/4
|-----------------|-----------------|-----------------|------------------
|-----------------|-----------------|-----------------|------------------
|-6-----6-----6---|---6-------7-----|---6-----6-----6-|-----6-----5------
|---5-----5-----5-|-----5-------6---|-----5-----5-----|-5-----5-----4----
|-----4-----4-----|-4-----4-5-----5-|-4-----4-----4---|---4-----4-----3--
|-----------------|-----------------|-----------------|------------------


|-----------------|-----------------|-----------------|------------------|
|-----------------|-----------------|-----------------|------------------|
|---6-----6-----6-|-----6-----7-----|---6-----6-----6-|-----6-----5------|
|-----5-----5-----|-5-----5-----6---|-----5-----5-----|-5-----5-----3----|
|-4-----4-----4---|---4-----4-----5-|-4-----4-----4---|---4-----4-----/4-|
|-----------------|-----------------|-----------------|------------------|


 4/4
                             ~
|------------------|----------------|------------------|
|-----5------------|-4--------------|-----3------------|
|-------3--0-2-4---|---2---4-3------|-------1----0-2---|
|----------------6-|-----1----------|----------3-------|
|-(4)--------------|-------------/5-|-(5)------------4-|
|------------------|----------------|------------------|


 0:36
  Q=200
|-----------------|-----------------|-----------------|-----------------|
|-----------------|-----------------|-----------------|-----------------|
|-6-----6-----6---|---6-------7-----|---6-----6-----6-|-----6-----5-----|
|---5-----5-----5-|-----5-------6---|-----5-----5-----|-5-----5-----4---|
|-----4-----4-----|-4-----4-5-----5-|-4-----4-----4---|---4-----4-----3-|
|-----------------|-----------------|-----------------|-----------------|


|-----------------|-----------------|-----------------|-----------------|
|-----------------|-----------------|-----------------|-----------------|
|---6-----6-----6-|-----6-----7-----|---6-----6-----6-|-----6-----5-----|
|-----5-----5-----|-5-----5-----6---|-----5-----5-----|-5-----5-----4---|
|-4-----4-----4---|---4-----4-----5-|-4-----4-----4---|---4-----4-----3-|
|-----------------|-----------------|-----------------|-----------------|


   0:45
    PM|   PM ~~~     PM--------------------|   PM ~~~     PM--------------|
||-----------------|-------------------|----------------|---------------------||
||o----------------|-------------------|----------------|--------------------o||
||------4---[3]----|-------------------|-----4---[3]----|---------------------||
||------2----------|-2-2-2-2-2-2-2-2-2-|-----2----------|-2-2-2-2-2-1-1-1-1---||
||o-0-0---0--------|-------------------|-0-0---0--------|--------------------o||
||-----------------|-------------------|----------------|---------------------||


|-----------------|-----------------|-----------------|-----------------|
|-----------------|-----------------|-----------------|-----------------|
|-6-----6-----6---|---6-------7-----|---6-----6-----6-|-----6-----5-----|
|---5-----5-----5-|-----5-------6---|-----5-----5-----|-5-----5-----4---|
|-----4-----4-----|-4-----4-5-----5-|-4-----4-----4---|---4-----4-----3-|
|-----------------|-----------------|-----------------|-----------------|


|-----------------|-----------------|-----------------|-----------------|
|-----------------|-----------------|-----------------|-----------------|
|---6-----6-----6-|-----6-----7-----|---6-----6-----6-|-----6-----5-----|
|-----5-----5-----|-5-----5-----6---|-----5-----5-----|-5-----5-----4---|
|-4-----4-----4---|---4-----4-----5-|-4-----4-----4---|---4-----4-----3-|
|-----------------|-----------------|-----------------|-----------------|


    PM|   PM ~~~     PM--------------------|   PM ~~~     PM--------------|
||-----------------|-------------------|----------------|---------------------||
||o----------------|-------------------|----------------|--------------------o||
||------4---[3]----|-------------------|-----4---[3]----|---------------------||
||------2----------|-2-2-2-2-2-2-2-2-2-|-----2----------|-2-2-2-2-2-1-1-1-1---||
||o-0-0---0--------|-------------------|-0-0---0--------|--------------------o||
||-----------------|-------------------|----------------|---------------------||


   1:12
    Q=120
   12/16
    PM--|     PM--|       PM--|
||----------------------|-----------------------
||o---------------------|-----------------------
||------------------4S5-|-----------------------
||--------4S5-------2S3-|-------4S5---------4S5-
||o-------2S3-----------|-------2S3-7S8-4S5-2S3-
||--0-0-0-----0-0-0-----|-0-0-0-----5S6-2S3-----


                                         Q=200
                                            2/4
  PM--|     PM--|       PM--|
|---------------------|-------------------||-^0----|
|---------------------|------------------o||-^6----|
|-----------------4S5-|-------------------||-^7----|
|-------4S5-------2S3-|-------4S5-6--(6)--||-^7----|
|-------2S3-----------|-------2S3-4--(4)-o||-------|
|-0-0-0-----0-0-0-----|-0-0-0-------------||-------|


 1:25
 4/4
|-----------------|-----------------|-----------------|------------------|
|-----------------|-----------------|-----------------|------------------|
|-6-----6-----6---|---6-------7-----|---6-----6-----6-|-----6-----5------|
|---5-----5-----5-|-----5-------6---|-----5-----5-----|-5-----5-----4----|
|-----4-----4-----|-4-----4-5-----5-|-4-----4-----4---|---4-----4-----3--|
|-----------------|-----------------|-----------------|------------------|


|-----------------|-----------------|-----------------|------------------|
|-----------------|-----------------|-----------------|------------------|
|---6-----6-----6-|-----6-----7-----|---6-----6-----6-|-----6-----5------|
|-----5-----5-----|-5-----5-----6---|-----5-----5-----|-5-----5-----3----|
|-4-----4-----4---|---4-----4-----5-|-4-----4-----4---|---4-----4-----/4-|
|-----------------|-----------------|-----------------|------------------|


 4/4
                             ~
|------------------|----------------|------------------|
|-----5------------|-4--------------|-----3------------|
|-------3--0-2-4---|---2---4-3------|-------1----0-2---|
|----------------6-|-----1----------|----------3-------|
|-(4)--------------|-------------/5-|-(5)------------4-|
|------------------|----------------|------------------|


 1:38
|-----------------|-----------------|-----------------|-----------------|
|-----------------|-----------------|-----------------|-----------------|
|-6-----6-----6---|---6-------7-----|---6-----6-----6-|-----6-----5-----|
|---5-----5-----5-|-----5-------6---|-----5-----5-----|-5-----5-----4---|
|-----4-----4-----|-4-----4-5-----5-|-4-----4-----4---|---4-----4-----3-|
|-----------------|-----------------|-----------------|-----------------|


|-----------------|-----------------|-----------------|-----------------|
|-----------------|-----------------|-----------------|-----------------|
|---6-----6-----6-|-----6-----7-----|---6-----6-----6-|-----6-----5-----|
|-----5-----5-----|-5-----5-----6---|-----5-----5-----|-5-----5-----4---|
|-4-----4-----4---|---4-----4-----5-|-4-----4-----4---|---4-----4-----3-|
|-----------------|-----------------|-----------------|-----------------|


   1:47
    PM|   PM ~~~     PM--------------------|   PM ~~~     PM--------------|
||-----------------|-------------------|----------------|---------------------||
||o----------------|-------------------|----------------|--------------------o||
||------4---[3]----|-------------------|-----4---[3]----|---------------------||
||------2----------|-2-2-2-2-2-2-2-2-2-|-----2----------|-2-2-2-2-2-1-1-1-1---||
||o-0-0---0--------|-------------------|-0-0---0--------|--------------------o||
||-----------------|-------------------|----------------|---------------------||


   1:56
    Q=120
   12/16
    PM--|     PM--|       PM--|
||----------------------|-----------------------
||o---------------------|-----------------------
||------------------4S5-|-----------------------
||--------4S5-------2S3-|-------4S5---------4S5-
||o-------2S3-----------|-------2S3-7S8-4S5-2S3-
||--0-0-0-----0-0-0-----|-0-0-0-----5S6-2S3-----


  PM--|     PM--|       PM--|
|---------------------|-------------------||
|---------------------|------------------o||
|-----------------4S5-|-------------------||
|-------4S5-------2S3-|-------4S5-6--(6)--||
|-------2S3-----------|-------2S3-4--(4)-o||
|-0-0-0-----0-0-0-----|-0-0-0-------------||


|----------|----------|--------|
|----------|----------|--------|
|----------|----------|--------|
|-(6)------|-(6)------|-(6)----|
|-(4)------|-(4)------|-(4)----|
|----------|----------|--------|


 2:12
  Q=160
|-------------|---------------|-------------------|------------------|
|-------------|---------------|-------------------|------------------|
|---5---6-5---|-5---6-5---6---|---------------6---|------------------|
|-----4-------|---4---------5-|-(5)---3-5-6-----5-|-(5)---2----------|
|-3---------3-|---------3-----|-----4-------4-----|-----4---6-5-4-4--|
|-------------|---------------|-------------------|------------------|


|---------------|---------------|------------|
|---------------|---------------|------------|
|-6-------------|-6-------------|-5----6-5---|
|---5---3-5-6---|---5---2-------|---4--------|
|-----4-------4-|-----4---6-5-3-|----------3-|
|---------------|---------------|------------|


                            8/16
|------------|-------------|-----------|
|------------|-------------|-----------|
|-5----6-5---|---5---6-5---|-5---6-5---|
|---4--------|-----4-------|---4-------|
|----------3-|-3---------3-|-----------|
|------------|-------------|-----------|


   2:24
   6/8                             3/8
||----------------|---------------|--------||
||o---------------|---------------|-------o||
||----------------|---------------|--------||
||----------------|---------------|--------||
||o---------------|---------------|-------o||
||--2-1-2-1-2-2-3-|-2-1-2-1-2-2-0-|-2-0-1--||


   6/8                             3/8
||----------------|---------------|--------||
||o---------------|---------------|-------o||
||----------------|---------------|--------||
||----------------|---------------|--------||
||o---------------|---------------|-------o||
||--5-4-5-4-5-5-6-|-5-4-5-4-5-5-3-|-5-3-4--||


   6/8                             3/8
||----------------|---------------|--------||
||o---------------|---------------|-------o||
||----------------|---------------|--------||
||----------------|---------------|--------||
||o---------------|---------------|-------o||
||--2-1-2-1-2-2-3-|-2-1-2-1-2-2-0-|-2-0-1--||


   2:44
    Q=150
   12/8
      PM|       PM  PM|    PM|     PM|       PM  PM|
                                                           4x
||-----------------------------|---------------------------||
||o----------------------------|--------------------------o||
||----------------8------------|---------------8-----------||
||--9-----10-10---6-----10-----|-9-----10-10---6-------7---||
||o-7------8--8----------8-----|-7------8--8-----------5--o||
||----0-0-------0---0-0----6-7-|---0-0-------0---0-0-5-----||


 3:04
 9/8                 12/8
                        PM----------------|
|-------------------|---------------------------------|
|-------------------|---------------------------------|
|-9---9-8---8-7---7-|-------------------4---7-7--6-6--|
|---9-----8-----7---|-6---------------5---5-5-5--4-4--|
|-------------------|-4-4-4-4-4-4-6-7-----------------|
|-------------------|---------------------------------|


    PM----|                       PM----------------|
|-----------------------------|---------------------------------|
|-----------------------------|---------------------------------|
|-----------9---9-8---8-7---7-|-------------------4---7-7--6-6--|
|-6-----------9-----8-----7---|-6---------------5---5-5-5--4-4--|
|-4-4-4-4-4-------------------|-4-4-4-4-4-4-6-7-----------------|
|-----------------------------|---------------------------------|


 3:14
  Q=200
 4/4
|-----------------|-----------------|-----------------|------------------
|-----------------|-----------------|-----------------|------------------
|-6-----6-----6---|---6-------7-----|---6-----6-----6-|-----6-----5------
|---5-----5-----5-|-----5-------6---|-----5-----5-----|-5-----5-----4----
|-----4-----4-----|-4-----4-5-----5-|-4-----4-----4---|---4-----4-----3--
|-----------------|-----------------|-----------------|------------------


|-----------------|-----------------|-----------------|-----------------|
|-----------------|-----------------|-----------------|-----------------|
|---6-----6-----6-|-----6-----7-----|---6-----6-----6-|-----6-----5-----|
|-----5-----5-----|-5-----5-----6---|-----5-----5-----|-5-----5-----4---|
|-4-----4-----4---|---4-----4-----5-|-4-----4-----4---|---4-----4-----3-|
|-----------------|-----------------|-----------------|-----------------|


   3:24
    PM|   PM ~~~     PM--------------------|   PM ~~~     PM--------------|
||-----------------|-------------------|----------------|---------------------||
||o----------------|-------------------|----------------|--------------------o||
||------4---[3]----|-------------------|-----4---[3]----|---------------------||
||------2----------|-2-2-2-2-2-2-2-2-2-|-----2----------|-2-2-2-2-2-1-1-1-1---||
||o-0-0---0--------|-------------------|-0-0---0--------|--------------------o||
||-----------------|-------------------|----------------|---------------------||


|-----------------|-----------------|-----------------|-----------------|
|-----------------|-----------------|-----------------|-----------------|
|-6-----6-----6---|---6-------7-----|---6-----6-----6-|-----6-----5-----|
|---5-----5-----5-|-----5-------6---|-----5-----5-----|-5-----5-----4---|
|-----4-----4-----|-4-----4-5-----5-|-4-----4-----4---|---4-----4-----3-|
|-----------------|-----------------|-----------------|-----------------|


|-----------------|-----------------|-----------------|-----------------|
|-----------------|-----------------|-----------------|-----------------|
|---6-----6-----6-|-----6-----7-----|---6-----6-----6-|-----6-----5-----|
|-----5-----5-----|-5-----5-----6---|-----5-----5-----|-5-----5-----4---|
|-4-----4-----4---|---4-----4-----5-|-4-----4-----4---|---4-----4-----3-|
|-----------------|-----------------|-----------------|-----------------|


    PM|   PM ~~~     PM--------------------|   PM ~~~     PM--------------|
||-----------------|-------------------|----------------|---------------------||
||o----------------|-------------------|----------------|--------------------o||
||------4---[3]----|-------------------|-----4---[3]----|---------------------||
||------2----------|-2-2-2-2-2-2-2-2-2-|-----2----------|-2-2-2-2-2-1-1-1-1---||
||o-0-0---0--------|-------------------|-0-0---0--------|--------------------o||
||-----------------|-------------------|----------------|---------------------||


 3:52
  Q=120
 12/16
  PM--|     PM--|       PM--|
|---------------------|-----------------------|
|---------------------|-----------------------|
|-----------------4S5-|-----------------------|
|-------4S5-------2S3-|-------4S5---------4S5-|
|-------2S3-----------|-------2S3-7S8-4S5-2S3-|
|-0-0-0-----0-0-0-----|-0-0-0-----5S6-2S3-----|


  PM--|     PM--|       PM--|
|---------------------|-------------------
|---------------------|-------------------
|-----------------4S5-|-------------------
|-------4S5-------2S3-|-------4S5-6--(6)--
|-------2S3-----------|-------2S3-4--(4)--
|-0-0-0-----0-0-0-----|-0-0-0-------------


  PM--|     PM--|       PM--|
|---------------------|-----------------------|
|---------------------|-----------------------|
|-----------------4S5-|-----------------------|
|-------4S5-------2S3-|-------4S5---------4S5-|
|-------2S3-----------|-------2S3-7S8-4S5-2S3-|
|-0-0-0-----0-0-0-----|-0-0-0-----5S6-2S3-----|


                       6/16
  PM--|     PM--|       PM--|
|---------------------|------------|
|---------------------|------------|
|-----------------4S5-|------------|
|-------4S5-------2S3-|-------4S5--|
|-------2S3-----------|-------2S3--|
|-0-0-0-----0-0-0-----|-0-0-0------|


 4:03
  Q=160
 12/16
|---------------|---------------|---------------|--------------|
|---------------|---------------|---------------|--------------|
|-6-------------|-6-------------|-6-------------|-6------------|
|---5---3-5-6---|---5---2-------|---5---3-5-6---|---5---2------|
|-----4-------4-|-----4---6-5-4-|-----4-------4-|-----4---6-5--|
|---------------|---------------|---------------|--------------|


    TP     TP       TP       TP
|--------|--------|--------|--------|----------|-------*|
|--------|--------|--------|--------|----------|-------*|
|--------|--------|--------|--------|----------|-------*|
|---6----|-6------|-6------|-6------|-(6)------|-6\----*|
|---4----|-4------|-4------|-4------|-(4)------|-4\----*|
|--------|--------|--------|--------|----------|-------*|


Tablature Legend
----------------
 h   - hammer-on
 p   - pull-off
 b   - bend
 pb  - pre-bend
 r   - bend release (if no number after the r, then release immediately)
 /  - slide into or out of (from/to "nowhere")
 s   - legato slide
 S   - shift slide
<n>  - natural harmonic
[n]  - artificial harmonic
n(n) - tapped harmonic
 ~   - vibrato
 tr  - trill
 T   - tap
 TP  - trem. picking
 PM  - palm muting
n/  - tremolo bar dip; n = amount to dip
 n  - tremolo bar down
 n/  - tremolo bar up
/n  - tremolo bar inverted dip
 =   - hold bend; also acts as connecting device for hammers/pulls
 <>  - volume swell (louder/softer)
 x   - on rhythm slash represents muted slash
 o   - on rhythm slash represents single note slash

Misc Legend
-----------
 |  - bar
||  - double bar
||o - repeat start
o|| - repeat end
*|  - double bar (ending)
 :  - bar (freetime)
 $  - Segno
 &  - Coda
Tempo markers - <E/E./Q/Q./H/H.> = BPM(8/16=s8/s16),
where s8 = swing 8ths, s16 = swing 16ths

  Visit MetalTabs.com for more metal tablature

bottom separator

Contact Us | Privacy Policy | Disclaimer | Legal Notice
Copyright © 2001-2014 MetalTabs.com. All Rights Reserved.