top separator

Home

Forum

What's New

Submit a Tab

FAQ

Links

Contact Us

Link to Us

MuSpy.com

MetalTabs.com logo

Bands

0-9

A

B

C

D

E

F

G

H

I

J

K

L

M

N

O

P

Q

R

S

T

U

V

W

X

Y

Z

Search

What

Where
 

Gorguts - "From Wisdom To Hate" Guitar Tab

Plain Text Version
More Gorguts Tabs

Hits: 4653
Rated: 4.00 out of 5 (1 vote)
Updated: 2005-12-17 20:52:09

 

By:

hot spicy

sendpm.gif

email.gif

Important note
This tab is available online because we obtained explicit permission from Gorguts or their label.


#----------------------------------PLEASE NOTE---------------------------------#
#This file is the author's own work and represents their interpretation of the #
#song. You may only use this file for private study, scholarship, or research. #
#Unless specified otherwise, this is NOT an official tab from the band members.#
#------------------------------------------------------------------------------#

  Visit MetalTabs.com for more metal tablature
  
Band:  Gorguts
Album: From Wisdom To Hate
Song:  From Wisdom To Hate

Copyright (c) Season Of Mist (2000)
Version 1.1  13.12.2005

Transcribed By: Robert Nowak
Email:          robert.n74@web.de
Bands:          unchallengedhate.de
                japanischekampfhoerspiele.de

.  - palm mute           /  - slide up to
\  - slide down to       ~  - vibrato
h  - hammer on           b  - Bend
p  - pull off            Suffixes for bend
t  - tap                 f  - full bend    h - half bend
ph - pinched harmonic    q  - quarter bend t - tap bend
*  - see comment         ^  - Hold bend    r release bend
x  - Stuccatto           ~  - vibrato bend
,  - slight palm mute    () - ghost note, sustained note
"  - tremolo note        <> - Trill

r  - let ring this note  u  - upstroke (the higher note takes priority)

nh  natural harmonic (lightly touch a string over the fret indicated
                       in TAB and pick)


Tuning: C F A# D# G C


guitar 1 =  left channel
guitar 2 = right channel



RIFF 1 (0:00) both gtr.
|-------------------------------------------------------------------
|-------------------------------------------------------------------
|-----------------15-\-13-13--13---6-6-6-/-7-7-/-8------------------
|---------8-/-9-9------------------0-0-0---0-0---0------------------
|-2-1-2-1---------13-\-11-11--11---4-4-4-/-5-5-/-6--1-2-1-2-6-/-7-7-
|-0-0-0-0-6-/-7-7-----------------------------------0-0-0-0-6-/-7-7-
  . . . .                                           . . . .

 --------------------------------------------------------||
 --------------------------------------------------------||
 ------------------9-----9------16-16~-10-10~-13-13~-16\-||
 --------------------------------------------------------||
 -6\1-1-----1------7-----7------14-14~--8--8~-11-11~-14\-||
 -----0---0-0--1/6-0---0-07/13--------------------------||

RIFF 1 last time guitar 1
|-------------------------------------------------------------------
|-------------------------------------------------------------------
|-----------------15-\-13-13--13---6-6-6-/-7-7-/-8------------------
|---------8-/-9-9------------------0-0-0---0-0---0------------------
|-2-1-2-1---------13-\-11-11--11---4-4-4-/-5-5-/-6--1-2-1-2-6-/-7-7-
|-0-0-0-0-6-/-7-7-----------------------------------0-0-0-0-6-/-7-7-
  . . . .                                           . . . .


 --------------------------------------------||
 --------------------------------------------||
 --------------------------------------------||
 --------------------------------------------||
 -6\1-1--------2-----------------------------||
 -----0-----0--0-----------------------------||
            .

RIFF 1 last time guitar 2
|------------------------------------------------------------------
|------------------------------------------------------------------
|-----------------15-\-13-13--13---6-6-6-/-7-7-/-8-----------------
|---------8-/-9-9------------------0-0-0---0-0---0-----------------
|-2-1-2-1---------13-\-11-11--11---4-4-4-/-5-5-/-6-1-2-1-2-6-/-7-7-
|-0-0-0-0-6-/-7-7----------------------------------0-0-0-0-6-/-7-7-
  . . . .                                          . . . .

 --------------------------------------------||
 --------------------------------------------||
 --------------------------------------------||
 --------------------------------------------||
 -6\1-1--------2-/-14-13h14p13----bh-br---bh-||
 -----0-----0--0---------------15-14---11-8--||
            .

RIFF 2 (0:45) both gtr.
|-------------------------------------------------------------------------
|-------bh-br---------------------------------bh-br-----------------------
|----10-10----9--9--8--10--9--9------------5--5-----4--4--3--5--4--4------
|-------bh-br---------------------------------bh-br-----------------------
|-6---8--8----7--7--6---8--7--7--7------1--3--3-----2--2--1--3--2--2--2---
|-0r-------------0r--------------0---0--0r-------------0r-------------0---
                                     .

 --------------------------------------------
 --------------------------------------------
 ----------0---------------------------------
 ------4-----4-----7---8\7-7--6--6-6-6-3-3-3-
 --------1-----1-----4-----0--0--0-0-0-0-0-0-
 -0-3------------6---------5--4--4-4-4-1-1-1-
  . [....let ring....]           . . . . . .

continue RIFF 2 guitar 1
      u          u   u
 --------------------------||
 -----4----------4---4-----||
 -----5----------5---5-----||
 --------------------------||
 --------7-7-7-------------||
 -0-0----0-0-0-------------||
  . .    . . .

continue RIFF 2 guitar 2
      u          u   u
 --------------------------||
 -----4----------4---4/6---||
 -----5----------5---5-----||
 --------------------------||
 --------7-7-7-------------||
 -0-0----0-0-0-------------||
  . .    . . .


last time before jumping into riff 3 (1:38) guitar 1 plays:
      u
 ------------------------||
 -----4------------------||
 -----5------------------||
 ------------------------||
 --------7-7-7-----------||
 -0-0----0-0-0-----------||
  . .    . . .


last time before jumping into riff 3 (1:38) guitar 2 plays:
      u
 ------------------------||
 -----4----------5---5---||
 -----5----------8---8---||
 ------------------------||
 --------7-7-7-----------||
 -0-0----0-0-0-----------||
  . .    . . .

RIFF 3 (1:40) guitar 1                                     u
|------------------------------------------------------------------------||
|-----------------------8~-7~-4~-3~---0----------------------------------||
|------------0r------0--9~-8~-5~-4~-3r-------------0r------5nh-----------||
|-----------------------9~-8~-5~-4~---------6-/-9r----9\8--9nh-----------||
|-2----------------8r----------------------------------------------2---2-||
|-0---0--1/4---4/7-----------------------0-4-/-7r-----------------0-4-3-||
      .                                  .                         . . .

RIFF 3 (1:40) guitar 2
|------------------------------------------------------------------------
|---0--------------------------------------------------------------------
|-3r---------0--------0----------------------------0r------5nh-----------
|-----------------------9~-8~-5~-4~---------3-/-6r----6\5----------------
|-------------------11-------------5-6\3---------------------------2---2-
|-----0--4/7---7/10----------------------0--1-/-4r-----------------0-4-3-
      .                                  .                         . . .

 ------------------------------------------------------------------------||
 ------------------------------------------------------------------------||
 ------------0--------0----------------------------0r------5nh-----------||
 -----------------------9~-8~-5~-4~---------3-/-6r----6\5----------------||
 -2-----------------11-------------5-6\3---------------------------2---2-||
 -0---0--4/7---7/10----------------------0--1-/-4r-----------------0-4-3-||
      .                                  .                         . . .


again RIFF 2 (1:55)
again RIFF 3 (2:23)


RIFF 4a (2:38) both gtr.
|--------------------------------------||
|--------------------------------------||
|----------------------------------0r--||
|---------1-----------------5----------||
|-2\1-----1-----2\1-----4-6----6-9---9-||
|-3----0------0-3----0-----------------||
       .      .      .  . .    . .



RIFF 4b (2:46) both gtr.
|------------------------------------||
|------------------------------------||
|------------------------------------||
|---------1-----------------5------5-||
|-2\1-----1-----2\1-----4-6----6-9---||
|-3----0------0-3----0---------------||
       .      .      .  . .    . .



RIFF 4a (2:54) both gtr.
|--------------------------------------||
|--------------------------------------||
|----------------------------------0r--||
|---------1-----------------5----------||
|-2\1-----1-----2\1-----4-6----6-9---9-||
|-3----0------0-3----0-----------------||
       .      .      .  . .    . .

Break (3:02) both gtr.
|-----------|
|-----------|
|-----------|
|-----------|
|-1-2-1-2---|
|-0-0-0-0---|
  . . . .

again RIFF 1 (3:03)

Solo   (3:15) guitar 3

Rhythm (3:15) only first time both gtr.
|---------------------------------------------------|
|---------------------------------------------------|
|-----------------15-\-13-13--13---6-6-6-/-7-7-/-8--|
|---------8-/-9-9------------------0-0-0---0-0---0--|
|-2-1-2-1---------13-\-11-11--11---4-4-4-/-5-5-/-6--|
|-0-0-0-0-6-/-7-7-----------------------------------|
  . . . .


Rhythm continue RIFF 5 both gtr.
|------------------------------------------------------------------------||
|------------------------------------------------------------------------||
|---------0---0----8-8-8 /-9-9-\--------------0----0----6-6-6-/-7-7-/-8--||
|---------5---5-------------------------------6----6----0-0-0-/-0-0-/-0--||
|-1--1----9---9-\--6-6-6-/-7-7-\-----1--1----11---11-\--4-4-4-/-5-5-/-6\-||
|-0--0-1/------------------------1-1-0--0-1/-----------------------------||

last time guitar 1
|------------------------------------------------------------------------||
|------------------------------------------------------------------------||
|---------0---0----8-8-8 /-9-9-\-----------------------------------------||
|---------5---5----------------------------------------------------------||
|-1--1----9---9-\--6-6-6-/-7-7-\-----1--------2-------------------------||
|-0--0-1/------------------------1-1-0-----0--0--------------------------||
                                           .




last time guitar 2
|------------------------------------------------------------------------||
|------------------------------------------------------------------------||
|---------0---0----8-8-8 /-9-9-\-----------------------------------------||
|---------5---5----------------------------------------------------------||
|-1--1----9---9-\--6-6-6-/-7-7-\-----1--------714-13h14p13----bh-br-----||
|-0--0-1/------------------------1-1-0-----0--0-------------15-14---11-8\||
                                           .


again RIFF 3 (3:52)
again RIFF 2 (4:07)


RIFF 2 last time both gtr.
|-------------------------------------------------------------------------
|-------bh-br---------------------------------bh-br-----------------------
|----10-10----9--9--8--10--9--9------------5--5-----4--4--3--5--4--4------
|-------bh-br---------------------------------bh-br-----------------------
|-6---8--8----7--7--6---8--7--7--7------1--3--3-----2--2--1--3--2--2--2---
|-0r-------------0r--------------0---0--0r-------------0r-------------0---
                                     .

 --------------------------------------------
 --------------------------------------------
 ----------0---------------------------------
 ------4-----4-----7---8\7-7--6--6-6-6-3-3-3-
 --------1-----1-----4-----0--0--0-0-0-0-0-0-
 -0-3------------6---------5--4--4-4-4-1-1-1-
  . [....let ring....]           . . . . . .

continue RIFF 2 guitar 1
      u          u   u
 --------------------------||
 -----4----------4---4-----||
 -----5----------5---5-----||
 --------------------------||
 --------7-7-7-------------||
 -0-0----0-0-0-------------||
  . .    . . .

continue RIFF 2 guitar 2
      u          u   u
 --------------------------||
 -----4----------4---4/6---||
 -----5----------5---5-----||
 --------------------------||
 --------7-7-7-------------||
 -0-0----0-0-0-------------||
  . .    . . .

again RIFF 4a (4:34)
again RIFF 4b (4:42)
again RIFF 4a (4:50)

ending (4:58) guitar 1
|-----------------------------------------------------------||
|-----------------------------------------------------------||
|----------------------------------0r-----------------------||
|---------1-----------------5-------------------1-----------||
|-2\1-----1-----2\1-----4-6----6-9---9--2\1-----1-----222-2-||
|-3----0------0-3----0------------------3----0------0-333-0-||
       .      .      .  . .    . .           .      .

ending (4:58) guitar 2
|-----------------------------------------------------------||
|-----------------------------------------------------------||
|----------------------------------0r-----------------------||
|---------1-----------------5-------------------1---------1-||
|-2\1-----1-----2\1-----4-6----6-9---9--2\1-----1-----222-1-||
|-3----0------0-3----0------------------3----0------0-333---||
       .      .      .  . .    . .           .      .

END

  Visit MetalTabs.com for more metal tablature

bottom separator

Contact Us | Privacy Policy | Disclaimer | Legal Notice
Copyright © 2001-2014 MetalTabs.com. All Rights Reserved.