top separator

Home

Forum

What's New

Submit a Tab

FAQ

Links

Contact Us

Link to Us

MuSpy.com

MetalTabs.com logo

Bands

0-9

A

B

C

D

E

F

G

H

I

J

K

L

M

N

O

P

Q

R

S

T

U

V

W

X

Y

Z

Search

What

Where
 

Finntroll - "Det Iskalla Trollblod" Guitar Tab

Plain Text Version
More Finntroll Tabs

Hits: 3490
Updated: 2005-08-17 16:19:36

 

By:

Theoldman

sendpm.gif

email.gif

Important note
This tab is available online because we obtained explicit permission from Finntroll or their label.


#----------------------------------PLEASE NOTE---------------------------------#
#This file is the author's own work and represents their interpretation of the #
#song. You may only use this file for private study, scholarship, or research. #
#Unless specified otherwise, this is NOT an official tab from the band members.#
#------------------------------------------------------------------------------#

  Visit MetalTabs.com for more metal tablature
  
Band:  Finntroll
Album: Nattfödd
Song:  Det Iskalla Trollblod

Copyright (c)  Spinefarm 2004
Version 1.0 - 27.7.2005

Transcribed By: theoldman
Email:          swordbearing@hotmail.com
________________________________________

.  - palm mute           /  - slide up to
\  - slide down to       ~  - vibrato
h  - hammer on           b  - Bend
p  - pull off            Suffixes for bend
t  - tap                 f  - full bend    h - half bend
ph - pinched harmonic    q  - quarter bend t - tap bend
*  - see comment         ^  - Hold bend    r release bend
x  - Stuccatto           ~  - vibrato bend
,  - slight palm mute    () - ghost note, sustained note
"  - tremolo note        <> - Trill

Tuning D G C F A D

Riff 1 (0:12-0:47)
|--------------------------------|
|--------------------------------|
|--------------------------------|
|----------------------3-3-2-2---|
|4-4-4-5-5-4-4-5-5-5-5-1-1-0-0-2-|
|2-2-2-3-3-2-2-3-3-3-3---------0-|

|--------------------------------|
|--------------------------------|
|--------------------------------|
|----------------------3-3-2-2---|
|4-4-4-5-5-4-4-5-5-5-5-1-1-0-0-2-|
|2-2-2-3-3-2-2-3-3-3-3---------0-|

|--------------------------------|
|--------------------------------|
|--------------------------------|
|----------------------3-3-2-2---|
|4-4-4-5-5-4-4-5-5-5-5-1-1-0-0-2-|
|2-2-2-3-3-2-2-3-3-3-3---------0-|

|--------------------------------|
|--------------------------------|
|--------------------------------|
|----------------------4-4-3-3---|
|4-4-4-5-5-4-4-3-3-3-3-2-2-1-1-2-|
|2-2-2-3-3-2-2-1-1-1-1---------0-|



Riff 2 (0:48-0:56)
|------------------------------------------------------|
|------------------------------------------------------|
|--------/4-------6--------------------4-------6-------|
|--------/2---4---4---6----------------2---4---4---6---|
|4------------2-------4--------------------2-------4---|
|2------------------------222222222222-----------------|
                          ............


Riff 3 (0:57-1:13)
|-------------------------------|
|-------------------------------|
|-----------------4-------6-----|
|---------------222---4-444---6-|
|-------------------222-----444-|
|22222222222222-----------------|
 .............. ..  ..  ..  ..



Riff 4 (1:14-1:30)
|-----------------------------------------|
|--------------7~-------------------------|
|-----------------------------------------|
|-------------------------4-2-6---2-0-4---|
|-----------------------------4-------2---|
|2-222-222-222-----222-22-----------------|
 . ... ... ...     ... .. . .     . .



Riff 5 (1:31)
|------------|
|------------|
|------------|
|6-----------|
|4-----------|
|------------|



Riff 3 (1:33-1:50)



Riff 6 (1:51-2:08)
|--------------------------------|
|--------------------------------|
|------------------4-------6-----|
|----------------222---4-444---6-|
|4-----6---4---2-----222-----444-|
|2-225-4-2-2-0-0-----------------|
   ...   .   .   ..  ..  ..  ..



Riff 7 (2:09-2:16)
|------------------------------|
|------------------------------|
|------------------------------|
|------------------------------|
|4------7---4---4--------2-4---|
|2------5---2---2--------0-2---|



Riff 8 (2:17-2:25)
|--------------------------------------------------------------|
|--------------------------------------------------------------|
|--------------------------------------------------------------|
|--------------------------------------------------------------|
|4------7---4---4-------4-2-4---4------7---4---4---------2-4---|
|2------5---2---2-------2-0-2---2------5---2---2-------2-0-2---|
                                                       .


Riff 9 (2:26-2:31)
|-----------------|
|-----------------|
|-----------------|
|-----------------|
|7---2---4--------|
|5---0---2--------|



Solo 1 (2:32-2:34)
|------------------------|
|------------------------|
|------------------------|
|7-6-4-6-7---6-4-6---4---|
|------------------7-----|
|------------------------|



Riff 10 (2:35-2:51)
|--------------------------------|
|--------------------------------|
|--------------------------------|
|--------------------------------|
|--------------------------------|
|22222222555-222-222222222-0-2---|
 ..........  ..  .........



Riff 11 (2:52-3:09)
|---------------------------------|
|---------------------------------|
|---------------------------------|
|----------------2222----4444-----|
|--44--44--44--44----2222----4444-|
|22--22--22--22-------------------|
 ................................



Riff 3 (3:10-3:26)

Riff 6 (3:27-3:43)



Riff 12 (3:44-3:50)
|--------------------------------------------|
|--------------------------------------------|
|--------------------------------------------|
|6-------------------------------------------|
|4-----------4-444-4-7-774-4-4-444-44--2-4---|
|------------2-222-2-5-552-2-2-222-222-0-2---|
                                     .


END

  Visit MetalTabs.com for more metal tablature

bottom separator

Contact Us | Privacy Policy | Disclaimer | Legal Notice
Copyright © 2001-2014 MetalTabs.com. All Rights Reserved.