top separator

Home

Forum

What's New

Submit a Tab

FAQ

Links

Contact Us

Link to Us

MuSpy.com

MetalTabs.com logo

Bands

0-9

A

B

C

D

E

F

G

H

I

J

K

L

M

N

O

P

Q

R

S

T

U

V

W

X

Y

Z

Search

What

Where
 

Norther - "Death Unlimited" Guitar Tab

Plain Text Version
More Norther Tabs

Hits: 9593
Rated: 4.30 out of 5 (10 votes)
Updated: 2005-08-17 16:18:36

 

By:

BOB_ZE_METALLEU

sendpm.gif

email.gif

Important note
This tab is available online because we obtained explicit permission from Norther or their label.


#----------------------------------PLEASE NOTE---------------------------------#
#This file is the author's own work and represents their interpretation of the #
#song. You may only use this file for private study, scholarship, or research. #
#Unless specified otherwise, this is NOT an official tab from the band members.#
#------------------------------------------------------------------------------#

  Visit MetalTabs.com for more metal tablature
  
Band: Norther
Album: Death Unlimited
Song:  Death Unlimited
Copyright (c)  SPINEFARM 2004
Version 1.0  26.07.2005

Transcribed By: Bob_ze_metalleu
Email:   Destroyestihotmail.com


.  - palm mute           /  - slide up to
\  - slide down to       ~  - vibrato
h  - hammer on           b  - Bend
p  - pull off            Suffixes for bend
t  - tap                 f  - full bend    h - half bend
ph - pinched harmonic    q  - quarter bend t - tap bend
*  - see comment         ^  - Hold bend    r release bend
x  - Stuccatto           ~  - vibrato bend
,  - slight palm mute    () - ghost note, sustained note
"  - tremolo note        <> - Trill

Tuning E A D G B E

I think Norther put a slide but Im not sure at 100%, p.m me if you find it.
It's my first tabs may be i have some error but i think its alright.

Play 16x (intro)
E|---------------------------------------------|
A|---------------------------------------------|
D|---------------------------------------------|
G|--3------------------14----------------------|
B|--3-------22-2--9-9----9--------------------|
E|--1-------0-0-0------------------------------|
            . . .

Riff 2
              When you listen you will ear a triolet
E|----------------------------------------------|
A|----------------------------------------------|
D|----------------------------------------------|
G|-------------5\4------------------------------|
B|--------2----3\2-9/7--------------2--3/4-6\5--|
E|000-000-0--------7/5------000-000-0--1/2-4\3--|

Riff 3
                 Im not sure how many 0 .Repeat this riff 2 times

E|-------------------------------------------------------------|
A|-------------------------------------------------------------|
G|-------------------------------------------------------------|
D|-------------------------------------------------------------|
B|--2-------------------------(2)---------(4)-------(2)--------|
E|--0-0-0-0-0-0-0-0-0-0-0-0-0-0-0-0-0-0-0-0-0-0-0-0-0-0-0-0-0--|

After

E|-------------------------------------------------------------------|
A|-------------------------------------------------------------------|
D|-------------------------------------------------------------------|
G|-------------------------------------------------------------------|
B|-3------------------------------(3)-----------------(3)------------|
E|-1-1-1-1-1-1-1-1-1-1-1-1-1-1-1-1-1-1-1-1-1-1-1-1-1-1-1-1-1-1-1-1-1-|

Now you repeat the Riff 2 at 0:54 sec

And play the Riff 3 at 1:07 min

Riff 4
E|-------------------------------------------------------------|
A|-------------------------------------------------------------|
D|-------------------( play 2 times)---------------------------|
G|-2--------5------4--------2----------------------------------|
B|-2--------------------------------5-3------------------------|
E|-0-----------0---------0------0------------------------------|
               .         .      .
E|-------------------------------------------------------------|
A|-------------------------------------------------------------|
D|-------------------------------------------------------------|
G|-5--------5------4--------2----------------------------------|
B|-5--------------------------------5-3------------------------|
E|-3-----------0---------0------0------------------------------|
               .         .      .
E|--------------------------------------------------------------|
A|--------------------------------------------------------------|
D|--------------------------------------------------------------|
G|-5------------------------------------------------------------|
B|-5--------5------4--------2-----------------------------------|
E|-3-----------0--------0--------5--3---------------------------|

And repeat this riff 2 time

I dont know the for the solo sorry.

Riff after solo

E|-------------------------------------------------------------------|
A|-------------------------------------------------------------------|
D|-------------------------------------------------------------------|
G|---5---------------------7------9-------------5--------------------|
B|---7-0-0-0-0-0-0-0-0-0-0-9-0-0-10-0-0-0-0-0-0-4--------------------|
E|-------------------------------------------------------------------|

Repeat this riff 7 times

 Notice: At 3:40 play the Riff 4.And at 4:22 play the Riff 2,
and you end with 3 powerchord mi.To really play the song perfectly,
take attention with GHOST NOTE.

  Visit MetalTabs.com for more metal tablature

bottom separator

Contact Us | Privacy Policy | Disclaimer | Legal Notice
Copyright © 2001-2014 MetalTabs.com. All Rights Reserved.