top separator

Home

Forum

What's New

Submit a Tab

FAQ

Links

Contact Us

Link to Us

MetalTabs.com logo

Bands

0-9

A

B

C

D

E

F

G

H

I

J

K

L

M

N

O

P

Q

R

S

T

U

V

W

X

Y

Z

Search

What

Where
 

Wykked Wytch - "Rising From The Abyss" Guitar Tab

Plain Text Version
More Wykked Wytch Tabs

Hits: 2727
Rated: 5.00 out of 5 (1 vote)
Updated: 2005-08-17 16:11:32

 

By:

Daniil

sendpm.gif

email.gif

Important note
This tab is available online because we obtained explicit permission from Wykked Wytch or their label.


#----------------------------------PLEASE NOTE---------------------------------#
#This file is the author's own work and represents their interpretation of the #
#song. You may only use this file for private study, scholarship, or research. #
#Unless specified otherwise, this is NOT an official tab from the band members.#
#------------------------------------------------------------------------------#

  Visit MetalTabs.com for more metal tablature
  
WYKKED WYTCH-Rising From The Abyss
Angelic Vengeance-2001
Copyright Demolition Records
Transcribed by Daniil Laletin
e-mail: dlaletin@mail.ru
version 1.0 May 2005

All corrections are welcome.

 " - tremolo
 / - slide down
 \ - slide up
 . - palm mute
 ~ - long sound
 x - rest
 p - pull off
 h - hammer on
 tr - trill
 () - ghost note, sustained note
 * - artificial harmonics
 b - bend

Tuning from low to high: E A D G B E
====================================

 Riff 1
|----------------------------------------------------------|
|----------------------------------------------------------|
|----------------------------------------------------------|
|-----------------------------------5h7p5-8--------5h7p5-8-|
|--------5------6------3-5-6-5-5555---------3-3333---------|
|-3-3333---3333---3333-------------------------------------|
|
|----------------------------------------------------------|
|----------------------------------------------------------|
|----------------------------------------------------------|
|----------------------------4-4444-5h7p5-8-5-5555-5h7p5-8-|
|--------5------6------3-5-6-------------------------------|
|-3-3333---3333---3333-------------------------------------|



 Riff 2a
|-------------------------------------------|
|-------------------------------------------|
|-------------------------------------------|
|-------7787-------7787-------878-------758-|
|-5"---------3"---------8"--------6"--------|
|-------------------------------------------|
|
|-------------------------------------------|
|-------------------------------------------|
|-------------------------------------------|
|--------787--------787-7"----878-5"----758-|
|-5"---------3"-----------------------------|
|-------------------------------------------|



 Riff 2b
|-------------------------------------------------------|
|-------------------------------------------------------|
|-------------------------------------------------------|
|--------7"8"7"--------7"8"7"-------8"7"8"-------7"5"8"-|
|-5"------------3"------------8"-----------6"-----------|
|-------------------------------------------------------|
|
|-------------------------------------------------------|
|-------------------------------------------------------|
|-------------------------------------------------------|
|--------7"8"7"--------7"8"7"-------8"7"8"-------7"5"8"-|
|-5"------------3"------------8"-----------6"-----------|
|-------------------------------------------------------|


 Riff 3
|---------------------------------------------|
|---------------------------------------------|
|---------------------------------------------|
|-7"--------------------8"-----------7"-------|
|----8"----7"-10"-7"-------10"----8"----8"----|
|---------------------------------------------|
|
|---------------------------------------------|
|---------------------------------------------|
|---------------------------------------------|
|-7"--------------------8"-----------7"-------|
|----8"----7"-10"-7"-------10"----8"----8"----|
|---------------------------------------------|


 Riff 4a
|---------------------------------------------|
|---------------------------------------------|
|---------------------------------------------|
|---------------------------------------------|
|-7"--------------------8"-----------7"-------|
|----8"----7"-10"-7"-------10"----8"----8"----|
|
|---------------------------------------------|
|---------------------------------------------|
|---------------------------------------------|
|---------------------------------------------|
|-7"--------------------8"-----------7"-------|
|----8"----7"-10"-7"-------10"----8"----8"----|


 Riff 4b
|---------------------------------------------|
|---------------------------------------------|
|---------------------------------------------|
|---------------------------------------------|
|-7"--------------------8"-----------7"-------|
|-0"-8"----7"-10"-7"----0"-10"----8"----8"----|
|
|---------------------------------------------|
|---------------------------------------------|
|---------------------------------------------|
|---------------------------------------------|
|-7"--------------------8"-----------7"-------|
|-0"-8"----7"-10"-7"----0"-10"----8"----8"----|



 Riff 5a
|-----------------------------------------|
|-----------------------------------------|
|-----------------------------------------|
|-----------------------3"------6"---5"---|
|-7"------3"---2"---3"--1"------4"---3"---|
|-5"------1"---0"---1"--------------------|
|
|-----------------------------------------|
|-----------------------------------------|
|-----------------------------------------|
|-----------------------3"------6"---5"---|
|-7"------3"---2"---3"--1"------4"---3"---|
|-5"------1"---0"---1"--------------------|


 Riff 5b
|-----------------------------------------|
|-----------------------------------------|
|-----------------------------------------|
|-----------------------3"------6"---5"---|
|-7"------3"---2"---3"--1"------4"---3"---|
|-5"------1"---0"---1"--------------------|
|
|-----------------------------------------|
|-----------------------------------------|
|-------------------------------6"---5"---|
|-7"--------------------8"----------------|
|---------8"---7"---8"--------------------|
|-----------------------------------------|


 Riff 6
|-----------------------------------------------------------------------|
|-----------------------------------------------------------------------|
|-----------------------------------------------------------------------|
|-----------------------------------------------------------------------|
|-8"---7"---5"--7"-5"-3"--5"-3"-0"---8"---7"---5"--7"-5"-3"--5"-3"-4"---|
|-----------------------------------------------------------------------|
|
|-----------------------------------------------------------------------|
|-----------------------------------------------------------------------|
|-----------------------------------------------------------------------|
|------------------------------------------------------------------3"---|
|-8"---7"---5"--7"-5"-3"--5"-3"-0"---8"---7"---5"--7"-5"-3"--5"-3"------|
|-----------------------------------------------------------------------|


 End with this
|---|
|---|
|---|
|---|
|-5-|
|-3-|

  Visit MetalTabs.com for more metal tablature

bottom separator

Contact Us | Privacy Policy | Disclaimer | Legal Notice
Copyright © 2001-2014 MetalTabs.com. All Rights Reserved.