top separator

Home

Forum

What's New

Submit a Tab

FAQ

Links

Contact Us

Link to Us

MetalTabs.com logo

Bands

0-9

A

B

C

D

E

F

G

H

I

J

K

L

M

N

O

P

Q

R

S

T

U

V

W

X

Y

Z

Search

What

Where
 

Cruachan - "Is Fuair an Chroí" Guitar Tab

Plain Text Version
More Cruachan Tabs

Hits: 2835
Updated: 2005-08-17 16:11:23

 

By:

Daniil

sendpm.gif

email.gif

Important note
This tab is available online because we obtained explicit permission from Cruachan or their label.


#----------------------------------PLEASE NOTE---------------------------------#
#This file is the author's own work and represents their interpretation of the #
#song. You may only use this file for private study, scholarship, or research. #
#Unless specified otherwise, this is NOT an official tab from the band members.#
#------------------------------------------------------------------------------#

  Visit MetalTabs.com for more metal tablature
  
CRUACHAN-Is Fuair An Chroi
The Middle Kingdom-2000
Copyright Hammerheart Records
Transcribed by Daniil Laletin
e-mail: dlaletin@mail.ru
version 1.0 June 2005

All corrections are welcome.

 " - tremolo
 / - slide down
 \ - slide up
 . - palm mute
 ~ - long sound
 x - rest
 p - pull off
 h - hammer on
 tr - trill
 () - ghost note, sustained note
 * - artificial harmonics
 b - bend

 Tuning from low to high: E A D G B E
=====================================

 Riff 1
|---------------------------------------|
|---------------------------------------|
|---------------------------------------|
|-7-5--------7-------7------7-------7---|Clean guitar
|-----8-7-5~---5-8-8---8-5~---5-8-8---8-|
|---------------------------------------|

|-----------------------|
|-----------------------|
|-----------------------|
|-5~-8-5-----7---5~-8-5-|Clean guitar
|--------8-8---8--------|
|-----------------------|


 Riff 2
|-------------------------------------|
|-------------------------------------|
|-------------------------------------|
|-7-7-77----------10-10-1010----------|guitar
|-5-5-55-77777777--8--8--8-8-10101010-|
|--------55555555-------------8-8-8-8-|



 Riff 3
|-----5------------------8----------------|
|---6---6-----5------10----10--------8----|
|-7---------5---5-10--------------9-----9-|
|---------7-------------------10----------|keyboard
|-----------------------------------------|
|-----------------------------------------|
|
|-----------------------------------------|
|-----------------------------------------|
|-----------------------------------------|
|-7-7-7-7---------10-10-10-10-------------|guitar
|-5-5-5-5-7-7-7-7--8--8--8--8-10-10-10-10-|
|-.-.-.-.-5-5-5-5--.--.--.--.--8--8--8--8-|
          . . . .              .  .  .  .
|-----5------------------8----------------|
|---6---6-----5------10----10--------8----|
|-7---------5---5-10--------------9-----9-|
|---------7-------------------10----------|keyboard
|-----------------------------------------|
|-----------------------------------------|
|
|-----------------------------------------|
|-----------------------------------------|
|-----------------------------------------|
|-7-7-7-7---------10-10-10-10-------------|guitar
|-5-5-5-5-7-7-7-7--8--8--8--8--x-10--x-10-|
|-.-.-.-.-5-5-5-5--.--.--.--.--x--8--x--8-|
          . . . .


Riff 4
|---------6---------------6---------------------------------------|
|-----8-------8-------8-------8~------8-------8-------8-------8---|
|---7---7---7---7---7---7---7-----5-8---8---7---7-5-8---8---7---7-|
|-5---------------5-----------------------8---------------8-------|
|-----------------------------------------------------------------|
|-----------------------------------------------------------------|
|keyboard
|-----------------------------------------------------------------|
|-----------------------------------------------------------------|
|-----7-------7-------7-------7---5~--8-5-----7---5~--8-777-5-----|
|-5~----5-8-8---8-5~----5-8-8---8---------8-8---8-------------8-7-|
|-----------------------------------------------------------------|
|-----------------------------------------------------------------|
 Clean guitar



 Riff 5
|-----------------------------------------------|
|-----------------------------------------------|
|-7~-9-10-9h10p9-7-5-7-9-7~-9-10-9h10p9-7-5-7~--|
|-----------------------------------------------|flute*
|-----------------------------------------------|
|-----------------------------------------------|
|
|------------10---------------------10----------|
|------10----------10---------10----------10~---|
|-7-10----10----10----10-7-10----10----10-------|
|-----------------------------------------------|keyboard
|-----------------------------------------------|
|-----------------------------------------------|
|
|-----------------------------------------------|
|-----------------------------------------------|
|-----------------------------------------------|
|-------7-----------7----------7-----------7----|clean guitar
|-5~-------5--8--8-----8-5~-------5--8--8-----8-|
|-----------------------------------------------|

|-----------------------------------------------|
|-----h/p--------h/p---------h/p---------h/p----|
|-12101210-9-7-109109-7-5-12101210-9-7-109109-7-|
|-----------------------------------------------|flute*
|-----------------------------------------------|
|-----------------------------------------------|
|
|------10----------10---------10----------10----|
|-8-11----11----10----10-8-11----11----10----10-|
|------------10---------------------10----------|
|-----------------------------------------------|keyboard
|-----------------------------------------------|
|-----------------------------------------------|
|
|-----------------------------------------------|
|-----------------------------------------------|
|-----------------------------------------------|
|-5~----8--5--------7----5~----8---777--5-------|clean guitar
|-------------8--8-----8-------------------8--7-|
|-----------------------------------------------|
 * - flute part look a little bit messy, but everything correct.


 Riff 6
|------------------------------------------------|
|------------------------------------------------|
|------------------h/p---------------------------|
|-9-------5-7-9~--79757~--9----------------------|flute
|---7-7~--------------------7-7~--109-7---5-7-9--|
|------------------------------------------------|
|
|------------------------------------------------|
|------------------------------------------------|
|------------------------------------------------|
|------------------------------------------------|guitar
|------------------------------------------------|
|-7-0-0~--3-5-7~--5-3-5~--7-0-0~--2-3-0~--2-0-2~-|

|----------------------------------------|
|----------------------------------------|
|-----------------h/p---------7----------|
|-9-------5-7-9--79757~---9-7---7-9------|flute
|---7-7~-----------------------------7-7-|
|----------------------------------------|
|
|----------------------------------------|
|----------------------------------------|
|----------------------------------------|
|----------------------------------------|guitar
|-----------------------------5----------|
|-7-0-0~--3-5-7~--5-3-5~--7-5---5-7-0-0~-|


 Riff 7
|--------------------------------------------------------------------------|
|---------------------------------------------7--8---7~--------------------|
|---7-7--9-7-9-7~------------7-----------9-9~------9-----------7-----------|
|------------------9-7-9-9~----9-7-9---------------------9-9-7---7-9-------|
|-7----------------------------------7-7-----------------------------7-7~--|
|--------------------------------------------------------------------------|
|flute
|--------------------------------------------------------------------------|
|--------------------------------------------------------------------------|
|--------------------------------------------------------------------------|
|---7-7--9-7-----------------------------9-9-------------------------------|
|---5-5--7-5-7-5~------------5-----------7-7--9-10-7-9~--------5-----------|
|-0----------------7-5-7-7~----7-5-7-0-0-----------------5-7-5---5-7-0-0~--|
 guitar

 Riff 8a
|------------------------------------------------|
|------------------------------------------------|
|------------------------------------------------|
|------------------------------------------------|guitar
|-7-0-0~--3-5-7~--5-3-5~--7-0-0~--2-3-0~----0-2~-|
|-----------------------------------------3------|

|----------------------------------------|
|----------------------------------------|
|----------------------------------------|
|-----------------------------5----------|guitar
|-7-0-0~--3-5-7~--5-3-5~--7-5---5-7-0-0~-|
|----------------------------------------|


 Fill 1
|--------------------------------------------------|
|--------------------------------------------------|
|-9-------5-7-9~--7-5-7~--9------------------------|
|---7-7~--------------------7-7~--10-9-7~--5-7-9~--|flute
|--------------------------------------------------|
|--------------------------------------------------|
|
|--------------------------------------------------|
|--------------------------------------------------|
|--------------------------------------------------|
|--------------------------------------------------|guitar
|-7x----------------------7x-----------5x----------|
|-5x----------------------5x-----------3x----------|

|-----------------------------------------|
|-----------------------------8-----------|
|-9-------5-7-9~--7-5-7~--9-7---7-9-------|
|---7-7~----------------------------7-7~--|flute
|-----------------------------------------|
|-----------------------------------------|
|
|-----------------------------------------|
|-----------------------------------------|
|-----------------------------------------|
|-----------------------------------------|guitar
|-7x----------------------7---5---7x------|
|-5x----------------------5---3---5x------|


 Riff 8a
|------------------------------------------------|
|------------------------------------------------|
|-9-------5-7-9~--7-5-7~--9----------------------|
|---7-7~--------------------7-7~-10-9-7~--5-7-9~-|flute
|------------------------------------------------|
|------------------------------------------------|
|
|------------------------------------------------|
|------------------------------------------------|
|------------------------------------------------|
|------------------------------------------------|guitar
|-7-0-0~--3-5-7~--5-3-5~--7-0-0~--2-3-0~----0-2~-|
|-----------------------------------------3------|

|----------------------------------------|
|-----------------------------8----------|
|-9-------5-7-9~--7-5-7~--9-7---7-9------|
|---7-7~----------------------------7-7~-|flute
|----------------------------------------|
|----------------------------------------|
|
|----------------------------------------|
|----------------------------------------|
|----------------------------------------|
|-----------------------------5----------|guitar
|-7-0-0~--3-5-7~--5-3-5~--7-5---5-7-0-0~-|
|----------------------------------------|


 Ending Riff a
|-----5-----------------8-------------|
|---6---6-----5------10---10------8---|
|-7---------5---5-10------------9---9-|
|---------7------------------10-------|keyboard
|-------------------------------------|
|-------------------------------------|
|
|-------------------------------------|
|-------------------------------------|
|-------------------------------------|
|-7x------------------------------555-|guitar
|-5x------------------------------333-|
|-------------------------------------|


 Ending Riff b
|-----5-----------------8-------------|
|---6---6-----5------10---10------8---|
|-7---------5---5-10------------9---9-|
|---------7------------------10-------|keyboard
|-------------------------------------|
|-------------------------------------|
|
|-------------------------------------|
|-------------------------------------|
|-------------------------------------|
|-7-------7-----7--7----7-----7-----7-|guitar
|-5-------5-----5--5----5-----5-----5-|
|-------------------------------------|

  Visit MetalTabs.com for more metal tablature

bottom separator

Contact Us | Privacy Policy | Disclaimer | Legal Notice
Copyright © 2001-2014 MetalTabs.com. All Rights Reserved.