top separator

Home

Forum

What's New

Submit a Tab

FAQ

Links

Contact Us

Link to Us

MuSpy.com

MetalTabs.com logo

Bands

0-9

A

B

C

D

E

F

G

H

I

J

K

L

M

N

O

P

Q

R

S

T

U

V

W

X

Y

Z

Search

What

Where
 

Ensiferum - "Slayer Of Light" Guitar Tab

Plain Text Version
More Ensiferum Tabs

Hits: 11171
Rated: 4.22 out of 5 (9 votes)
Updated: 2005-08-17 16:11:06

 

By:

Daniil

sendpm.gif

email.gif

Important note
This tab is available online because we obtained explicit permission from Ensiferum or their label.


#----------------------------------PLEASE NOTE---------------------------------#
#This file is the author's own work and represents their interpretation of the #
#song. You may only use this file for private study, scholarship, or research. #
#Unless specified otherwise, this is NOT an official tab from the band members.#
#------------------------------------------------------------------------------#

  Visit MetalTabs.com for more metal tablature
  
ENSIFERUM-Slayer Of Light
Iron-2004
Copyright Spinefarm Records
Transcribed by Daniil Laletin
e-mail: dlaletin@mail.ru
version 1.0 May 2005

All corrections are welcome.

 " - tremolo
 / - slide down
 \ - slide up
 . - palm mute
 ~ - long sound
 x - rest
 p - pull off
 h - hammer on
 tr - trill
 () - ghost note, sustained note
 * - artificial harmonics
 b - bend

Tuning from low to high: E A D G B E
====================================

 Intro
|---------------------------------------------------------|
|---------------------------------------------------------|
|-------------------------------------------------7-9-6-9-|
|-------------------------------------------------7-9-6-9-|gtr1
|-4--------22-----4--------22-----4--------22-----5-7-4-7-|
|-2222-5522--2255-2222-5522--2200-2222-5522--2222---------|
|
|---------------------------------------------------------|
|---------------------------------------------------------|
|-------------------------------------------------7-9-6-9-|
|-------------------------------------------------7-9-6-9-|gtr 2
|-4-----------------------------------------------5-7-4-7-|
|-2-------------------------------------------------------|

|---------------------------------------------------------|
|---------------------------------------------------------|
|---------------------------------------------------------|
|-------------------------------------------------2---4-6-|gtr1
|-4--------22-----4--------22-----4--------22-----0-4-2-4-|
|-2222-5522--2255-2222-5522--2200-2222-5522--2222---2-----|
|
|---------------------------------------------------------|
|---------------------------------------------------------|
|---------------------------------------------------------|
|-------------------------------------------------2---4-6-|gtr 2
|-4-------------4-4---------------4-------(4)-----0-4-2-4-|
|-2-------------2-2---------------2-------(2)-------2-----|



 Riff 1
|-------------------------------------------------|
|-------------------------------------------------|
|-------------------------------------------------|
|-------------------------------------------------|gtr1
|-4--------22-----4--------22-----4--------22-----|
|-2222-5522--2255-2222-5522--2200-2222-5522--2222-|
|
|-------------------------------------------------|
|-------------------------------------------------|
|-------------------------------------------------|
|-------------------------------------------------|gtr 2
|-4--------22-----4--------22-----4--------22-----|
|-2222-5522--2255-2222-5522--2200-2222-5522--2222-|

 Endings of Riff 1
|---------|   |---------|   |---------|
|---------|   |---------|   |---------|
|---------|   |---------|   |---------|
|-7-9-6-9-|   |-----6-7-|   |-----4-6-|gtr1
|-5-7-4-7-|   |-7-4-4-5-|   |-7-4-2-4-|
|---------|   |-5-2-----|   |-5-2-----|
|
|---------|   |---------|   |---------|
|---------|   |---------|   |---------|
|---------|   |---------|   |---------|
|-7-9-6-9-|   |-----6-7-|   |-----4-6-|gtr 2
|-5-7-4-7-|   |-7-4-4-5-|   |-7-4-2-4-|
|---------|   |-5-2-----|   |-5-2-----|
   1st&3rd           2nd           4th


 Riff 2
|-----------------------------------------------------------------------|
|-----------------------------------------------------------------------|
|-----------------------------------------------------------------------|
|------------------6--------2-------------------------2--------6--------|
|-4----------------4-444444-0-000000-4----------------0-000000-4-444444-|
|-2-22222222222222-------------------2-22222222222222-------------------|
 both gtrs

|-----------------------------------------------------------------------|
|-----------------------------------------------------------------------|
|-----------------------------------------------------------------------|
|------------------6--------2--------4----------------2--------6--------|
|-4----------------4-444444-0-000000-2-22222222222222-0-000000-4-444444-|
|-2-22222222222222------------------------------------------------------|
 both gtrs


 Riff 3
|------------------------------------------------------------------------|
|-/7-------10-12---10-12~-------------10--12-10--10-8-7------------------|
|-----6-6-------------------------------------------------/6-6~----------|
|-----------7--9----7--9~--7h9h11p9p7--7---9--7---7-5-4------------------|
|-------------------------------------------------.-.-.------------------|
|------------------------------------------------------------------------|
|gtr 1
|------------------------------------------------------------------------|
|------------------------------------------------------------------------|
|---------------4--------4-4----------7--------7-------------------------|
|-4--------4-4--4--------4-4----------7--------7--7-6--------------------|
|-4--------4-4--2-222222-2-2----------5-555555-5------4------------------|
|-2-222222-2-2------------------------------------5-4-2-2-222-222-222222-|
 gtr 2                                            . .   .

|-------------------/9-7----5-7~-------------------------------------|
|-/7~------7-7-----------------------/5--7---9p7p5---5---7~----------|
|------------------------------------------------------6-------------|
|--------------------------------------------------------------------|
|--------------------------------------------------------------------|
|--------------------------------------------------------------------|
|gtr 1
|--------------------------------------------------------------------|
|--------------------------------------------------------------------|
|--------------------------------------------------------------------|
|-4--------4------------------6--------7--------6--------------------|
|-4--------4------------------7--------7--------4------4-------------|
|-2-222222-2-222222-/4-444444-4-444444-5-555555----5-4-2-2-222-222-2-|
 gtr 2                                             . .   .

|----------------------------------------------------------------|
|-/7------10-12--10-12~-------10--12-10--10-8-7------------------|
|-----6-6------------------------------------------/6-6~---------|
|----------7--9---7--9~--------7---9--7---7-5-4------------------|
|-----------------------------------------.-.-.------------------|
|----------------------------------------------------------------|
|gtr 1
|----------------------------------------------------------------|
|----------------------------------------------------------------|
|---------------4--------4-4--7--------7-------------------------|
|----------4-4--4--------4-4--7--------7--7-6--------------------|
|-4--------4-4--2-222222-2-2--5-555555-5------4------------------|
|-2-222222-2-2----------------------------5-4-2-2-222-222-222222-|
 gtr 2                                    . .   .

|-----------------/9-7-----9-7~---------------------------------------|
|-/7~-----7-7------------------------/5-7--9p7p5----5---7~------------|
|-----------------------------------------------------6---------------|
|---------------------------------------------------------------------|
|---------------------------------------------------------------------|
|---------------------------------------------------------------------|
|gtr 1
|---------------------------------------------------------------------|
|---------------------------------------------------------------------|
|---------------------------------------------------------------------|
|-4--------4------------------6--------7--------6---------------------|
|-4--------4------------------7--------7--------4-------4-------------|
|-2-222222-2-222222-/4-444444-4-444444-5-555555-----5-4-2-2-222-222-2-|
 gtr 2                                              . .   .


 Fill 1
|-------------------------|
|-------------------------|
|-------------------------|
|----------------------4--|gtr 1
|-2-2--2-2-2--2-2-2--2-2--|
|-0-0--0-0-0--0-0-0--0----|
| . .  . . .  . . .  .
|-------------------------|
|-------------------------|
|-------------------------|
|----------------------4--|gtr 2
|-2-2--2-2-2--2-2-2--2-2--|
|-0-0--0-0-0--0-0-0--0----|
  . .  . . .  . . .  .


 Riff 4
|-------------------------------------------------------------------------|
|-------------------------------------------------------------------------|
|-------------------------------------------------------------------------|
|-------------------------------------7--------6--------7--------6--------|
|-4--------2--------5--------4----------------------------444444---444444-|
|---222222---222222---222222---222222---555555---555555-------------------|
 both gtrs

|-------------------------------------------------------------------|
|-------------------------------------------------------------------|
|-------------------------------------------------------------------|
|------------------------------------7--------6---7---6-----7-6-4-6-|
|-4--------2--------5-----5-4---------------------------444---------|
|---222222---222222---222-----222222---555555---5---5---------------|
 both gtrs

|----------------------------------------------------------------|
|----------------------------------------------------------------|
|----------------------------------------------------------------|
|---------------------------------7-------6---77-----------6-4-6-|
|-4-----4-222-222-5-----5-444-444---------------5544444444-------|
|---222-------------222-------------555-5---5--------------------|
 both gtrs

|------------------------------------------------------------------|
|------------------------------------------------------------------|
|--------------------------------------------------6---------------|
|-----------------------------------7--------6---7---6-----7-6-4-6-|
|-4--------22222-4-5-----5-4---------------------------444---------|
|---222222-----.-----222-----222222---555555---5-------------------|
 both gtrs


 Riff 5
|---------------------------------------------------|
|---------------------------------------------------|
|------------4------4-4-7------7--------------------|
|-4------4-4-4------4-4-7------7-7-6----------------|
|-4------4-4-2-2222-2-2-5-5555-5-----4--------------|
|-2-2222-2-2---....-------....---5-4-2-2-2222222222-|
    ....                         . .   .

|-------------------------------------------------------------|
|-------------------------------------------------------------|
|-------------------------------------------------------------|
|-7-4-4--------------5------7------6--------------------------|
|-9-4-4--------------7------7------4------4-------------------|
|-5-2-2-2222-/4-4444-4-4444-5-5555----5-4-2-----2-2-2-2-2-2-2-|
        ....    ....   ....   ....    . .       . . . . .

|------------------------------------------------------|
|-------------------3----------------------------------|
|------------4------4------7------6-----6--------------|
|-4------4-4-4-4444-4-4444-7-7777-7-----7-44446666-----|
|-4------4-4-2-....---....-5-....---9-9-9---------4444-|
|-2-2222-2-2------------------------.-.----------------|
|   ....
|------------------------------------------------------|
|-------------------3----------------------------------|
|------------4------4------7------6-----6--------------|
|-4------4-4-4-4444-4-4444-7-7777-7-----7-4444---------|
|-4------4-4-2-....---....-5-....---9-9-9-----4444-----|
|-2-2222-2-2------------------------.-.-----------2222-|

|----------------------------------------------|
|----------------------------------------------|
|----------------------------------------------|
|-7777----66664444-2-4-2~-------------6-----4--|
|-----4444---------------------7------4---4-4--|
|--------------------------4-4-5-5555---5-.----|
|                          . .   ....   .
|----------------------------------------------|
|----------------------------------------------|
|----------------------------------------------|
|-------------------------------------6--------|
|-4444--------2222-4-5-7~--6-6-7------4---4-4--|
|-----22220000-----.-.-.---4-4-5-5555---5-.-2--|
                           . .   ....   .


 Riff 6
|-------------------------------------------------------|
|-------------------------------------------------------|
|-------------------------------------------------------|
|----------------------4--------------------------------|
|-2-2--2-2-2--2-2-2--2-2--4-----------------------------|
|-0-0--0-0-0--0-0-0--0----2-222-2222222222-/5"------4-2-|
  . .  . . .  . . .  .                              . .

|----------------------------------------------|
|----------------------------------------------|
|----------------------------------------------|
|---------------4-4---7-7----------------4--2--|
|-2-2--2-2-2--2-2-2-2-5-5--4------4------2--0--|
|-0-0--0-0-0--0-----0------2-2222-2-2222-------|
  . .  . . .  .     .

 Ending of Riff 6
|-----------------------|
|-----------------------|
|-----------------------|
|-----------------------|
|-2------2------7-------|
|-0-0000-0-0000-5--4tr5-|



 End song with this chord
|---|
|---|
|---|
|---|
|-4-|
|-2-|

  Visit MetalTabs.com for more metal tablature

bottom separator

Contact Us | Privacy Policy | Disclaimer | Legal Notice
Copyright © 2001-2014 MetalTabs.com. All Rights Reserved.