top separator

Home

Forum

What's New

Submit a Tab

FAQ

Links

Contact Us

Link to Us

MuSpy.com

MetalTabs.com logo

Bands

0-9

A

B

C

D

E

F

G

H

I

J

K

L

M

N

O

P

Q

R

S

T

U

V

W

X

Y

Z

Search

What

Where
 

Ensiferum - "Tale of Revenge" Guitar Tab

Plain Text Version
More Ensiferum Tabs

Hits: 14513
Rated: 3.70 out of 5 (10 votes)
Updated: 2005-08-17 16:10:51

 

By:

Daniil

sendpm.gif

email.gif

Important note
This tab is available online because we obtained explicit permission from Ensiferum or their label.


#----------------------------------PLEASE NOTE---------------------------------#
#This file is the author's own work and represents their interpretation of the #
#song. You may only use this file for private study, scholarship, or research. #
#Unless specified otherwise, this is NOT an official tab from the band members.#
#------------------------------------------------------------------------------#

  Visit MetalTabs.com for more metal tablature
  
ENSIFERUM-Tale Of Revenge
Iron-2004
Copyright Spinefarm Records
Transcribed by Daniil Laletin
e-mail: dlaletin@mail.ru
version 1.0 May 2005

All corrections are welcome.

 " - tremolo
 / - slide down
 \ - slide up
 . - palm mute
 ~ - long sound
 x - rest
 p - pull off
 h - hammer on
 tr - trill
 () - ghost note, sustained note
 * - artificial harmonics
 b - bend

Tuning from low to high: E A D G B E
====================================

 Riff 1
|----------------------------------------------|
|----------------------------------------------|
|-/10-1010-10-9-7--9-99-9-7-5--7-77-7-9-10-----|
|------------------------------------------7~--|
|----------------------------------------------|
|----------------------------------------------|
|
|----------------------------------------------|
|----------------------------------------------|
|---2--2-2---2---------------------------------|
|---0--0-0---0-----2--2-2--2---3--3-3--3-------|
|------------------0--0-0--0---1--1-1--1--x3---|
|-----------------------------------------x1---|

|--------------------------------------|
|--------------------------------------|
|-/7-77-7-9-10-7~----------5~----5-7~--|
|-----------------8~---7~------7-------|
|--------------------------------------|
|--------------------------------------|
|
|--------------------------------------|
|--------------------------------------|
|----2-22--2-----------------------2---|
|-00-0-00--0---3-----------2-------0---|
|-..-----------1----11-3---0---00------|
|-------------------..-1-------..------|

|-----------------------------------------------|
|-----------------------------------------------|
|-/10-1010-10-9-7~--9-99-9-7-5~--7-77-7-5-7-----|
|-------------------------------------------7~--|
|-----------------------------------------------|
|-----------------------------------------------|
|
|-----------------------------------------------|
|-----------------------------------------------|
|---2--2-2---2----------------------------------|
|-000--0-0---0------2--2-2--2----3--33--3-------|
|-..----------------0--0-0--0----1--11--1--x3---|
|------------------------------------------x1---|

|----------------------------------------|
|----------------------------------------|
|-/7-77-7-9-10-7~----------5~----5-7~----|
|-----------------8~---7~------7---------|
|----------------------------------------|
|----------------------------------------|
|
|----------------------------------------|
|----------------------------------------|
|----2-22--2-----------------------2-----|
|-00-0-00--0---3-----------2-------0-----|
|-..-----------1----11-3---0---00------\-|
|-------------------..-1-------..------\-|

|------------------------------------------------|
|------------------------------------------------|
|-/10-1010-10-9-7~--9-99-9-10-9~--7-77-7-5-7-----|
|--------------------------------------------7~--|
|------------------------------------------------|
|------------------------------------------------|
|
|------------------------------------------------|
|------------------------------------------------|
|--2---------------------------------------------|
|--0--0-0--0--0-0---2-------------3--------------|
|-----.-.--.--.-.---0-0-0--0--0-0-1--11111---3---|
|---------------------.-.--.--.-.----.....---1---|

|--------------------------------------|
|--------------------------------------|
|-/7-77-7-9-10-7~----------5~----5-7~--|
|------------------8~--7~------7-------|
|--------------------------------------|
|--------------------------------------|
|
|--------------------------------------|
|--------------------------------------|
|----2-----------------------------2---|
|-00-0-00-0-00-3-----------2-------0---|
|-..---..-.-..-1----11-3---0----00-----|
|-------------------..-1--------..-----|

|-----------------------------------------------|
|-----------------------------------------------|
|-/10-1010-10-9-7---9-99-9-7-5--7-77-7-9-10-----|
|-------------------------------------------7~--|
|-----------------------------------------------|
|-----------------------------------------------|
|
|-----------------------------------------------|
|-----------------------------------------------|
|---2-------------------------------------------|
|-000--00-0--00-----2-----------3---------------|
|-..---..-.--..-----0-00-0-00---1--11111----3---|
|---------------------..-.-..------.....----1---|

|--------------------------------------|
|--------------------------------------|
|-/7-77-7-9-10-7~----------5~----5-7~--|
|------------------8~--7~------7-------|
|--------------------------------------|
|--------------------------------------|
|
|--------------------------------------|
|--------------------------------------|
|----2-----------------------------2---|
|-00-0-00-0-00-3-----------2-------0---|
|-..---..-.-..-1----11-3---0----00-----|
|-------------------..-1--------..-----|



 Riff 2a
|--------------------------------------------------------------------------|
|-----10~--1010-10-8-6-8-10~-------8~--6---------------------8~---6~-------|
|-7~--------------------------9~---------9-7--9~-99999-5~-9~-----------975-|
|--------------------------------------------------------------------------|
|--------------------------------------------------------------------------|
|--------------------------------------------------------------------------|
|
|--------------------------------------------------------------------------|
|----------------------------------8-------------------------8----6--------|
|-----------------------------9----5-------------------------7----7--------|
|-----------------------------5-----------3------------------5-55-7--------|
|-555---------------------------77---33-111---333--------------..---88-000-|
|-...---------------------------..---..-...---...-------------------..-...-|

|--------------------------------------------------------------------------|
|-----10~--1010-10-8-6-8-10~-------8~--6---------------------8-88-6-66-----|
|-7~--------------------------9~---------9-7--9~-99999-5~-9~-----------975-|
|--------------------------------------------------------------------------|
|--------------------------------------------------------------------------|
|--------------------------------------------------------------------------|
|
|--------------------------------------------------------------------------|
|----------------------------------8-------------------------8-88-6-66-----|
|-----------------------------9----5-------------------------7-77-7-77-----|
|-----------------------------5-----------3------------------5-55-7-77-----|
|-555---------------------------77---33-111---000------------5-55-5-55-000-|
|-...---------------------------..---..-...---...----------------------...-|



 Riff 2a
|--------------------------------------------|
|-----10~--1010-10-8-6-8-10~-------8~--6-----|
|-7~--------------------------9~---------9-7-|
|--------------------------------------------|
|--------------------------------------------|
|--------------------------------------------|
|
|--------------------------------------------|
|----------------------------------8---------|
|-----------------------------9----5---------|
|-7-----------------7---------5-----------3--|
|-5---555---55555---5---55------77---33-111--|
|-----...---.....-------..------..---..-...--|

|--------------------------------|
|------------------8~---6~-------|
|-9~-99999-5~-9~-------------975-|
|--------------------------------|
|--------------------------------|
|--------------------------------|
|
|--------------------------------|
|------------------8----6--------|
|------------------7----7--------|
|-5-----------5----5-55-7--------|
|-3-333-33333-3-33---..---88-000-|
|---...-.....---..--------..-...-|

|--------------------------------------------|
|-----10~--1010-10-8-6-8-10~-------8~--6-----|
|-7~--------------------------9~---------9-7-|
|--------------------------------------------|
|--------------------------------------------|
|--------------------------------------------|
|
|--------------------------------------------|
|----------------------------------8---------|
|-----------------------------9----5---------|
|-7-----------------7---------5-----------3--|
|-5---555---55555---5---55------77---33-111--|
|-----...---.....-------..------..---..-...--|

|----------------------------------|
|------------------8~---6~---------|
|-9~-99999-5~-9~-------------975-7-|
|----------------------------------|
|----------------------------------|
|----------------------------------|
|
|----------------------------------|
|------------------8----6----------|
|------------------7----7----------|
|-2-----------2----5-55-7--------7-|
|-0-000-00000-0-00---..---88-000-5-|
|---...-.....---..--------..-...---|



 Riff 3a
|----------------------------------------------------------5-3-5~------|
|-6~~-------5~~-----------------------------------6-5-6~------------5~-|
|---------------------7-5-7~------------5~~----------------------------|
|------------------------------7~~-------------------------------------|
|----------------------------------------------------------------------|
|----------------------------------------------------------------------|
|
|----------------------------------------------------------------------|
|-------------------------------------------------6-5-6----10810-------|
|-7-10------5-9------7-5-7-9---------5--5-9-------7-5-7----10910----9--|
|------7--------5--------------7-5-7---------7----------------------7--|
|--------------------------------------------5-------------------------|
|----------------------------------------------------------------------|
|
|----------------------------------------------------------------------|
|----------------------------------------------------------------------|
|----------------------------------------------------------------------|
|------7---------2----3-3-3------------------2----7-5-7-------------5--|
|-5-55-5-55-0-00-0-00-1-0-1-11-3-3-3----0-00-0-00-5-5-5-55-3-3-3----3--|
|-.-..---..-.-..---..-------..-1-0-1-11-.-..---..-------..-1-0-1-11----|
                                     ..                          ..
|----------------------------------------------------------|
|-6~~-------5~~-----------------------------------6-5-6~---|
|---------------------7-5-7~------------5~~----------------|
|------------------------------7~~-------------------------|
|----------------------------------------------------------|
|----------------------------------------------------------|
|
|----------------------------------------------------------|
|-------------------------------------------------6-5-6----|
|-7-10------5-9------7-5-7-9---------5--5-9-------7-5-7----|
|------7--------5--------------7-5-7---------7-------------|
|--------------------------------------------5-------------|
|----------------------------------------------------------|
|
|----------------------------------------------------------|
|----------------------------------------------------------|
|----------------------------------------------------------|
|------7---------2----3-3-3------------------2----7-5-7----|
|-5-55-5-55-0-00-0-00-1-0-1-11-3-3-3----0-00-0-00-5-5-5-55-|
|-.-..---..-.-..---..-------..-1-0-1-11-.-..---..-------..-|
                                     ..
|-5~--------------------|
|-----------6~--5~~-----|
|-----------------------|
|-----------------------|
|-----------------------|
|-----------------------|
|
|-----------------------|
|-10-8h10p8-6---5-------|
|-------------7---5-----|
|-------------------7---|
|---------------------7-|
|-----------------------|
|
|-----------------------|
|-----------------------|
|-----------------------|
|---------7-----2-------|
|-3-------5-----0-------|
|-1---------------------|



 Riff 3b (voice part)
|----------------------------------------------------------5-3-5~------|
|-6~~-------5~~-----------------------------------6-5-6~------------5~-|
|---------------------7-5-7~------------5~~----------------------------|
|------------------------------7~~-------------------------------------|
|----------------------------------------------------------------------|
|----------------------------------------------------------------------|
|
|----------------------------------------------------------------------|
|-----------------------------------------------8--6-------10810-------|
|-7-10------5-9------7-5-7-------------------7--9--7-------10910----9--|
|------7--------5--------------7-5-7---------7----------------------7--|
|----------------------------------------------------------------------|
|----------------------------------------------------------------------|
|
|----------------------------------------------------------------------|
|----------------------------------------------------------------------|
|----------------------------------------------------------------------|
|------7---------2----3-3-3------------------2----7-5-7-------------5--|
|-5-55-5-55-0-00-0-00-1-0-1-11-3-3-3----0-00-0-00-5-5-5-55-3-3-3----3--|
|-.-..---..-.-..---..-------..-1-0-1-11-.-..---..-------..-1-0-1-11----|
                                     ..                          ..
|----------------------------------------------------------|
|-6~~-------5~~-----------------------------------6-5-6~---|
|---------------------7-5-7~------------5~~----------------|
|------------------------------7~~-------------------------|
|----------------------------------------------------------|
|----------------------------------------------------------|
|
|----------------------------------------------------------|
|---------------------------------------------8-6----------|
|-7-10------5-9------7-5-7----------------5-9-9-7-----7----|
|------7--------5--------------7-5-7-----------------------|
|----------------------------------------------------------|
|----------------------------------------------------------|
|
|----------------------------------------------------------|
|----------------------------------------------------------|
|----------------------------------------------------------|
|------7---------2----3-3-3------------------2----7-5-7----|
|-5-55-5-55-0-00-0-00-1-0-1-11-3-3-3----0-00-0-00-5-5-5-55-|
|-.-..---..-.-..---..-------..-1-0-1-11-.-..---..-------..-|
                                     ..
|-5~--------------------|
|-----------6~--5~~-----|
|-----------------------|
|-----------------------|
|-----------------------|
|-----------------------|
|
|-----------------------|
|-10-8-10-8-6---5-------|
|-------------7---5-----|
|-------------------7---|
|---------------------7-|
|-----------------------|
|
|-----------------------|
|-----------------------|
|-----------------------|
|---------7-----2-------|
|-3-------5-----0-------|
|-1---------------------|



 At 01:53 of this song play the second part of Riff 2a like this:
|--------------------------------------------------------------------------|
|-----10~--1010-10-8-6-8-10~-------8~--6--------------------/8-88-6-66--88-|
|-7~--------------------------9~---------9-7--9~-99999-5~-9~-----------9---|
|--------------------------------------------------------------------------|
|--------------------------------------------------------------------------|
|--------------------------------------------------------------------------|
|
|--------------------------------------------------------------------------|
|----------------------------------8---------------------------------------|
|-----------------------------9----5---------------------------------------|
|-----------------------------5-----------3------------------5-55----------|
|-555---------------------------77---33-111---000------------3-33-3-33-----|
|-...---------------------------..---..-...---...-----------------1-11-133-|
                                                                       ...


 Riff 4
|------------------------------------------|
|------------------------------------------|
|-----9~---9-9--9-75-7-9~-------7~-5-------|
|--7~----------------------9~--------9-7~--|
|------------------------------------------|
|------------------------------------------|
|
|-----12~-1212-121081012~------10~-8-------|
|-10~---------------------12~-------1210~--|
|------------------------------------------|
|------------------------------------------|
|------------------------------------------|
|------------------------------------------|
|
|------------------------------------------|
|------------------------------------------|
|------------------------------------------|
|--------------------------7---------------|
|--7------7---------7------5-55-5------2---|
|--5--55--5--55555--5--55----..-3-33-000---|
    ... .....     ..          ..
|-------------------------------------|
|-------------------------------------|
|--------------------7~---5~----------|
|--9~--9*-5~--9~--------------9--7-5--|
|-------------------------------------|
|-------------------------------------|
|
|-------------------10~---8~----------|
|-12~-12*-8~-12~-------------12-10-8--|
|-------------------------------------|
|-------------------------------------|
|-------------------------------------|
|-------------------------------------|
|
|-------------------------------------|
|-------------------------------------|
|-------------------------------------|
|--------------------7----------------|
|--5----5-------5----5-55-7-------2---|
|--3-33-3-33333-3-33---..-5-55--000---|
     ..   .....   ..        ..
|------------------------------------------|
|------------------------------------------|
|-----9~---9-9--9-75-7-9~-------7~-5-------|
|--7~----------------------9~--------9-7~--|
|------------------------------------------|
|------------------------------------------|
|
|-----12~-1212-121081012~------10~-8-------|
|-10~---------------------12~-------1210~--|
|------------------------------------------|
|------------------------------------------|
|------------------------------------------|
|------------------------------------------|
|
|------------------------------------------|
|------------------------------------------|
|------------------------------------------|
|--------------------------7---------------|
|--7------7---------7------5-55-5------3---|
|--5--55--5--55555--5--55----..-3-33-111---|
    ... .....     ..          ..
|----------------------------------------|
|----------------------------------------|
|--------------------7~---5~-------------|
|--9~--9*-5~--9~--------------9--7-5--7~-|
|----------------------------------------|
|----------------------------------------|
|
|-------------------10~---8~-------------|
|-12~-12*-8~-12~-------------12-10-8-10~-|
|----------------------------------------|
|----------------------------------------|
|----------------------------------------|
|----------------------------------------|
|
|----------------------------------------|
|----------------------------------------|
|----------------------------------------|
|--------------------7-------------------|
|--2----2-------2----5-55-7-------2---7--|
|--0-00-0-00000-0-00---..-5-55--000---5--|
     ..   .....   ..
    * - several times
    - i simplify lead guitar part to save space


 Riff 5
|---------------------------------------------------|
|-6~------------5~------------7-5-7~----------------|
|----------------------------------------7~---------|
|---------------------------------------------------|
|---------------------------------------------------|
|---------------------------------------------------|
|
|---------------------------------------------------|
|---------------------------------------------------|
|--------7-------------2----------------------------|
|-x------7------x------2------3-3-3-----------------|
|-x-5555-5-5555-x-0000-0-0000-1-0-1-1111-3-3-3------|
|-x-....---....-x-....---....-------....-1-0-1-1111-|
                                               ....
|--------------------------5-3-5~--------|
|-5~------------6-5-6~----------------5~-|
|----------------------------------------|
|----------------------------------------|
|----------------------------------------|
|----------------------------------------|
|
|----------------------------------------|
|----------------------------------------|
|--------2-------------------------------|
|-x------2------7-5-7-----------------5--|
|-x-0000-0-0000-5-5-5-5555-3-3-3------3--|
|-x-....---....-------....-1-0-1-1111----|
                                 ....
|---------------------------------------------------|
|-6~------------5~------------7-5-7~----------------|
|----------------------------------------7~---------|
|---------------------------------------------------|
|---------------------------------------------------|
|---------------------------------------------------|
|
|---------------------------------------------------|
|---------------------------------------------------|
|--------7-------------2----------------------------|
|-x------7------x------2------3-3-3-----------------|
|-x-5555-5-5555-x-0000-0-0000-1-0-1-1111-3-3-3------|
|-x-....---....-x-....---....-------....-1-0-1-1111-|
                                               ....
|---------------------------------------|
|-5~------------6-5-6~-----10-8-6---5~--|
|---------------------------------7-----|
|---------------------------------------|
|---------------------------------------|
|---------------------------------------|
|
|---------------------------------------|
|---------------------------------------|
|--------2------------------------------|
|-x------2------7-5-7------------7------|
|-x-0000-0-0000-5-5-5-5555-3-----5----7-|
|-x-....---....-------....-1----------5-|


Riff 6                                                           1st part
|------------------------------------------------------------------------|
|-/10-1010-10-8-------8~-88-8--------------------8-10~-------------------|
|---------------10~-----------10-9~---10-1010-10---------9~~----(9)------|
|------------------------------------------------------------------------|
|------------------------------------------------------------------------|
|------------------------------------------------------------------------|
|
|------------------------------------------------------------------------|
|------------------------------------------------------------------------|
|------------------7-----------------------------------------------------|
|---7--------------7---------------5------------------8------------------|
|---5---55555555------5------------5---8--------------8----7------7------|
|---------------------3--33333333------6---66666666--------5-5555-5-5555-|

|----------------------------------------------------|
|-----------8-10-------------------------------------|
|-10-101010------10~---7~----10~-----9~--9h10p9-7~~--|
|----------------------------------------------------|
|----------------------------------------------------|
|----------------------------------------------------|
|
|----------------------------------------------------|
|----------------------------------------------------|
|--------------7--------------------------------2----|
|--7-----------7---------------------2----------0----|
|--5-55555555-----8----8------3------0-0000----------|
|-----------------6----6-6666-1-1111-----------------|
                                                                 2nd part
|------------------------------------------------------------------------|
|-/10-1010-10-8----10-8~-88-8--------------------8-10--------------------|
|---------------10------------10-9~---10-1010-10------10-9~~----9-7-9----|
|------------------------------------------------------------------------|
|------------------------------------------------------------------------|
|------------------------------------------------------------------------|
|
|------------------------------------------------------------------------|
|------------------------------------------------------------------------|
|------------------7-----------------------------------------------------|
|---7--------------7---------------5------------------8------------------|
|---5---55555555------5------------5---8--------------8----7------7------|
|---------------------3--33333333------6---66666666--------5-5555-5-5555-|

|--------------------------------------------------|
|-----------8-10-----------------------------------|
|-10-101010------10~---7~--10910~--9~--9h10p9-7~~--|
|--------------------------------------------------|
|--------------------------------------------------|
|--------------------------------------------------|
|
|--------------------------------------------------|
|--------------------------------------------------|
|--------------7------------------------------2----|
|--7-----------7--------------------2---------0----|
|--5-55555555-----8----8------3-----0---0-0--------|
|-----------------6----6-6666-1--------------------|
                                                                 3rd part
|------------------------------------------------------------------------|
|-/10-1010-10-8-------8~-88-8--------------------8-10~-------------------|
|---------------10~-----------10-9~---10-1010-10---------9~~----(9)------|
|------------------------------------------------------------------------|
|------------------------------------------------------------------------|
|------------------------------------------------------------------------|
|
|------------------------------------------------------------------------|
|------------------------------------------------------------------------|
|--7-------7-------------------------------------------------------------|
|--7--7-7--7--5-5-----5--5-5--5--------8------------8--7--7-7--7--5-5----|
|--5--.-.-----.-.-----5--.-.--5--8-8---8---8-8-8-8--8--7--.-.--7--.-.----|
|---------------------3----------.-.---6---.-.-.-.-----5-----------------|

|-----------------------------------------------------|
|-----------8-10-11~~----10-8--10~----8~--8h10p8-6~~--|
|-10-101010------10~--7~-10-9--10~----9~--9h10p9-7~~--|
|-----------------------------------------------------|
|-----------------------------------------------------|
|-----------------------------------------------------|
|
|-----------------6-----6-----------------------------|
|--6-----6--------6-----6-----------------------------|
|--7-----7--------7-----7------10-----9---------------|
|--7--77-7--77-------88----88--10-----7----------7----|
|-----..----..-------..----..---8-88--7----7-7---5----|
|---------------------------------..-------.-.---5----|

 Then play 2nd part once more


 Acoustic fill
|--------------------------------------------------------------------------|
|---------8--------------------------------------------------------------6-|
|-7------------------------------------------------------10-109-9h10p9-7-7-|
|----------------------8-------7---------0-------8-------------------------|
|--------------------------------------------------------------------------|
|--------------------------------------------------------------------------|
|
|--------------------------------------------------------------------------|
|------------------------------------------------------------------------6-|
|---77--7---7---7----7---77--7---7--7---7--77--7---7--7--10-109-9h10p9-7-7-|
|-0-------0---0----0---0-------0---0--0--0-------0---0---------------------|
|--------------------------------------------------------------------------|
|--------------------------------------------------------------------------|
|
|--------------------------------------------------------------------------|
|--------------------------------------------------------------------------|
|--------------------------------------------------------------------------|
|---77--7-5-8-5-8--5-8-------------66------77--5---5-----------------------|
|-5----------------------88--8-7-8-------5-------8---88---8--87-7h8p7--5-5-|
|----------------------6---------------------------------------------------|
|
|--------------------------------------------------------------------------|
|--------------------------------------------------------------------------|
|-7--------------------------------------7----------------10--9--------7-7-|
|-7-----5--------------8-----7-----------7-----8----------10--7--------7-7-|
|-5-----5--------------8-----7-----------5-----8-----------8--7--------5-5-|
|----------------------6-----------------------6---------------------------|
  * - Well, it's very difficult to hear all instruments here, but i think
      it's 95% right, if anyone wants to help with this fill, please
      e-mail me))


 Riff 7
|---------------------------10-1010910----------------------|
|----------------1111101110---------------------------------|
|----------------------------------------------1010910------|
|-----------------------------------------------------------|
|-----------------------------------------------------------|
|-----------------------------------------------------------|
|
|-----------------------------------------------------------|
|-----------------------------------------------------------|
|-----------------------------------------------------------|
|-7-------7-----------------7-------------------------------|
|-5-5"----5-5"----8-----8-7-5-5"----3-----3------3-2-3------|
|-----------------6-66666-5---------1-11111-1111-1-0-1-1111-|

|--------------------|
|--------------------|
|---------9979-------|
|--------------------|
|--------------------|
|--------------------|
|
|--------------------|
|--------------------|
|--------------------|
|-5------------------|
|-3-3"----7-7-7------|
|---------5-4-5-5555-|

|-----------------------------------------------------------|
|-----------------------------------------------------------|
|-----------------------------------------------------------|
|-----------------------------------------------------------|
|-----------------------------------------------------------|
|-----------------------------------------------------------|
|
|-----------------------------------------------------------|
|-----------------------------------------------------------|
|-----------------------------------------------------------|
|-7-------7-----------------7-------------------------------|
|-5-5"----5-5"----8-----8-7-5-5"----5-----5------5-5-5------|
|-----------------6-66666-5---------3-33333-3333-3-2-3-3333-|

|----------------|
|----------------|
|----------------|
|----------------|
|----------------|
|----------------|
|
|----------------|
|----------------|
|-----------2----|
|------2----0----|
|-3----0---------|
|-1--------------|
 The keyboard line is not complete, i'll hope to transcribe it
 in the next update.


 In the end of the you should play Riff 6,
 but part 3 you should play like this:

                                                                 3rd part
|------------------------------------------------------------------------|
|-/10-1010-10-8-------8~-88-8--------------------8-10~-------------------|
|---------------10~-----------10-9~---10-1010-10---------9~~----(9)------|
|------------------------------------------------------------------------|
|------------------------------------------------------------------------|
|------------------------------------------------------------------------|
|
|------------------------------------------------------------------------|
|------------------------------------------------------------------------|
|--7---------------------------------------------------------------------|
|--7------------------5----------------8---------------7-----------------|
|--5------------------5----------------8---------------7-----------------|
|---------------------3----------------6---------------5-----------------|

|-----------------------------------------------------|
|-----------8-10-11~~----10-8--10~----8~--8h10p8-6~~--|
|-10-101010------10~--7~-10-9--10~----9~--9h10p9-7~~--|
|-----------------------------------------------------|
|-----------------------------------------------------|
|-----------------------------------------------------|
|
|-----------------------------------------------------|
|-----------------------------------------------------|
|----------------7-------------------------------2----|
|--7-------------7--------------------2----------0----|
|--5---55555555-----8----8------3-----0---0-0---------|
|-------------------6----6-6666-1---------------------|

The end.

  Visit MetalTabs.com for more metal tablature

bottom separator

Contact Us | Privacy Policy | Disclaimer | Legal Notice
Copyright © 2001-2014 MetalTabs.com. All Rights Reserved.