top separator

Home

Forum

What's New

Submit a Tab

FAQ

Links

Contact Us

Link to Us

MetalTabs.com logo

Bands

0-9

A

B

C

D

E

F

G

H

I

J

K

L

M

N

O

P

Q

R

S

T

U

V

W

X

Y

Z

Search

What

Where
 

Ensiferum - "Iron" Guitar Tab

Plain Text Version
More Ensiferum Tabs

Hits: 18727
Rated: 3.11 out of 5 (9 votes)
Updated: 2005-08-17 16:10:36

 

By:

Daniil

sendpm.gif

email.gif

Important note
This tab is available online because we obtained explicit permission from Ensiferum or their label.


#----------------------------------PLEASE NOTE---------------------------------#
#This file is the author's own work and represents their interpretation of the #
#song. You may only use this file for private study, scholarship, or research. #
#Unless specified otherwise, this is NOT an official tab from the band members.#
#------------------------------------------------------------------------------#

  Visit MetalTabs.com for more metal tablature
  
ENSIFERUM-Iron
Iron-2004
Copyright Spinefarm Records
Transcribed by Daniil Laletin
e-mail: dlaletin@mail.ru
version 1.0 May 2005

All corrections are welcome.

 " - tremolo
 / - slide down
 \ - slide up
 . - palm mute
 ~ - long sound
 x - rest
 p - pull off
 h - hammer on
 tr - trill
 () - ghost note, sustained note
 * - artificial harmonics
 b - bend

Tuning from low to high: E A D G B E
====================================

 Intro
|------------------------------------------------|
|------------------------------------------------|
|-----------------------7-7---7---9-9---9--------|
|---------------------------7---------9----------|
|-----------------------5-5---5---7-7---7--------|
|---------------------------5---------7----------|
|
|------------------------------------------------|
|------------------------------------------------|
|------------------------------------------------|
|-------4-------5-5-----7------------------------|
|-2-----2-222-5-3-3-3-3-5------------------5-4-2-|
|-0-000-------3-----.-.--------------------3-2-0-|

|---------------------------------------------|
|---------------------------------------------|
|--------------------------7-7---7---9-9---9--|
|------------------------------7---------9----|
|--------------------------5-5---5---7-7---7--|
|------------------------------5---------7----|
|
|-7-------------------------------------------|
|---10-8-7--10p7-8p7---b----------------------|
|--------------------9-9----------------------|
|--------------------------7-7---7---9-9---9--|
|--------------------------5-5-7-5---7-7-9-7--|
|------------------------------5---------7----|


 Riff 1
|----------------------------------------------------|
|----------------------------------------------------|
|-4--------------------------------------------------|
|----7-5-4--7p4-5p4-2-2--0-2-4--4-2-4--4h5p2-2-2-0-2-|
|----------------------------------------------------|
|----------------------------------------------------|
|
|----------------------------------------------------|
|----------------------------------------------------|
|----------------------------------------------------|
|---------4---------5-5------7--7---7--------9-9---9-|
|-2-------2-222--5--3-3--333-5--5-7-5---555--7-7-9-7-|
|-0-000----------3----------------5--------------7---|

|-----------------------------------------------------|
|-----------------------------------------------------|
|-4---------------------------------------------------|
|----7-5-4--7p4-5p4-5-5--5p4p2h4-4-2-0--0h2p0-2-2---2-|
|-------------------------------------------------2---|
|-----------------------------------------------------|
|
|-----------------------------------------------------|
|-----------------------------------------------------|
|-----------------------------------------------------|
|---------4---------5-5--------7-7------------9-9---9-|
|-2-------2-222--5--3-3---333--5-5-7-9--------7-7-9-7-|
|-0-000----------3-----------------5-7---777------7---|

|---------------------------------------------------|
|---------------------------------------------------|
|-4--------------------------2--2-0-2--2/4--4-4-2-4-|
|----7-5-4--7p4-5p4-2-2--0-2-4--4-2-4-------2-2-0-2-|
|---------------------------------------------------|
|---------------------------------------------------|
|
|---------------------------------------------------|
|---------------------------------------------------|
|---------------------------------------------------|
|---------4---------5-5------7--7---7-------9-9---9-|
|-2-------2-222--5--3-3--333-5--5-7-5--555--7-7-9-7-|
|-0-000----------3----------------5-------------7---|

|-----------------------------------------------------|
|-----------------------------------------------------|
|-4---------------------------------------------------|
|----7-5-4--7p4-2h4-5-5--5p4p2h4-4-2-0--------2-2-0-2-|
|----------------------------------------0h2----------|
|-----------------------------------------------------|
|
|-----------------------------------------------------|
|-----------------------------------------------------|
|-----------------------------------------------------|
|---------4---------5-5--------7-7------------9-9---9-|
|-2-------2-222--5--3-3---333--5-5-7-9--------7-7-9-7-|
|-0-000----------3-----------------5-7---777------7---|


 Riff 2
|-------------------------------------------------------------------|
|-------------------------------------------------------------------|
|-------------------4-----------------------------------------------|
|-2-222-245-222-245---5-4-2---2-22-0----5---7-777-77-5-----2------0-|
|-------------------------------------------------------------------|
|-------------------------------------------------------------------|
|
|-------------------------------------------------------------------|
|-------------------------------------------------------------------|
|-------------------------------------------------------------------|
|----------------------------------------------------5--------------|
|-2--------------------------------5--------7--------3-333-333-33-5-|
|-0-000-000-000-000-000-000-000-00-3-333-33-5-555-55--------------3-|

|---------------------------------------------------------------------|
|---------------------------------------------------------------------|
|-------------------4-------------------------------------------------|
|-2-222-245-222-245---5-4-2---2-22-0----5---7-777-77-7-77-4-44-2-22-0-|
|---------------------------------------------------------------------|
|---------------------------------------------------------------------|
|
|---------------------------------------------------------------------|
|---------------------------------------------------------------------|
|---------------------------------------------------------------------|
|----------------------------------------------------7--------------4-|
|-2--------------------------------5--------7--------5--555-555-55--2-|
|-0-000-000-000-000-000-000-000-00-3-333-33-5-555-55------------------|

|-------------------------------------------------------------------|
|-------------------------------------------------------------------|
|-------------------4-----------------------------------------------|
|-2-222-245-222-245---5-4-2---2-22-0----5---7-777-77-5-----2------0-|
|-------------------------------------------------------------------|
|-------------------------------------------------------------------|
|
|-------------------------------------------------------------------|
|-------------------------------------------------------------------|
|-------------------------------------------------------------------|
|----------------------------------------------------5------------7-|
|-2--------------------------------5--------7--------3-333-333-33-5-|
|-0-000-000-000-000-000-000-000-00-3-333-33-5-555-55----------------|

|-------------------------------------------------------------------|
|-------------------------------------------------------------------|
|-------------------4--------------------------------4--------------|
|-2-222-245-222-245---5-4-5----4-2-0---5----7-777-77----4---2h4p2---|
|-------------------------------------------------------------------|
|-------------------------------------------------------------------|
|
|-------------------------------------------------------------------|
|-------------------------------------------------------------------|
|-------------------------------------------------------------------|
|-------------------------------------------------------------------|
|-2--------------------------------5--------7--------9--------------|
|-0-000-000-000-000-000-000-000-00-3--------5--------7--------------|



 Riff 3
|----------------------------------------------------|
|----------------------------------------------------|
|-4--------------------------------------------------|
|----7-5-4--7p4-5p4-2-2--0-2-4--4-2-4--4h5p2-2-2-0-2-|
|----------------------------------------------------|
|----------------------------------------------------|
|
|----------------------------------------------------|
|----------------------------------------------------|
|----------------------------------------------------|
|---------4---------5-5------7--7---7--------9-9---9-|
|-2-------2-2-2---5-3-3--3-3-5--5-7-5---5-5--7-7-9-7-|
|-0-0-0-----.-.---3------.-.------5-----.-.------7---|
    . .
|-----------------------------------------------------|
|-----------------------------------------------------|
|-4---------------------------------------------------|
|----7-5-4--7p4-5p4-5-5--4-2-4---4-2-0--0h2p0-2-2---2-|
|-------------------------------------------------2---|
|-----------------------------------------------------|
|
|-----------------------------------------------------|
|-----------------------------------------------------|
|-----------------------------------------------------|
|---------4---------5-5--------7-7------------9-9---9-|
|-2-------2-2-2---5-3-3---3-3--5-5-7-9--------7-7-9-7-|
|-0-0-0-----.-.---3-------.-.------5-7---7-7------7---|
    . .                                  . .
|--------------------------------------------------|
|--------------------------------------------------|
|-4--------------------------2--2-0-2--2/4-4-4-2-4-|
|----7-5-4--7p4-5p4-2-2--0-2-4--4-2-4------2-2-0-2-|
|--------------------------------------------------|
|--------------------------------------------------|
|
|--------------------------------------------------|
|--------------------------------------------------|
|---------------------4----------------------------|
|---------7-----------2------4--4-2-4--4/9-9-9-7-9-|
|-5-------5-5-5-5p2-2-2--2-2-2--2-0-2--2/7-7-7-5-7-|
|-3-3-3---------3p0-0-0----------------------------|

|-----------------------------------------------------|
|-----------------------------------------------------|
|-4---------------------------------------------------|
|----7-5-4--7p4-2h4-5-5--4-2-4---4-2-0--------2-2---2-|
|----------------------------------------0h2------2---|
|-----------------------------------------------------|
|
|-----------------------------------------------------|
|-----------------------------------------------------|
|-----------------------------------------------------|
|--------4------5/7/9-7----------7---7--------9-9---9-|
|-5------2-4-4--3/5/7-5---5--5---5-7-5---5-5--7-7-9-7-|
|-3-3-3----------------------------5--------------7---|


 Riff 4
|----------------------------------------------------------------|
|----------------3-2-0--------3~--2h3p2~--0----------------------|
|--------------4--------2-4~-----------------2-4~----------------|
|-2~-------------------------------------------------------------|
|----------------------------------------------------------------|
|----------------------------------------------------------------|
|
|----------------------------------------------------------------|
|----------------------------------------------------------------|
|----------------------------------------------------------------|
|-----------------------------------------------9----------------|
|-2------------5-7--------9-9-5--------7--------7-777-7777777777-|
|-0-000-000-00-3-5-555-55-7-7-3-333-33-5-555-55------------------|

|--------------------------------------------------------|
|----------------3-2-0-----------------------------------|
|--------------4-------2-4~------------------------------|
|-2~--------------------------5~-4h5p4~-2h4p2-0-2~-------|
|--------------------------------------------------------|
|--------------------------------------------------------|
|
|--------------------------------------------------------|
|--------------------------------------------------------|
|--------------------------------------------------------|
|--------------------------------------------------------|
|-2------------5-7--------9-9-5--------4--------2---(2)--|
|-0-000-000-00-3-5-555-55-7-7-3-333-33-2-222-22-0---(0)--|

|--------------------------------------------------|
|-3~----5------------------5~---5------------------|
|---------4-2-4~--------------5---4~~--------------|
|-------------------2~-----------------------------|
|--------------------------------------------------|
|--------------------------------------------------|
|
|--------------------------------------------------|
|--------------------------------------------------|
|--------------------------------------------------|
|-7------------------------5-----------------------|
|-5-------5---------2------3-3333-5----------------|
|---------3---------0-0000--------3-333-3333333333-|

|----------------------------------------------------|
|-3~----5--------------------------------------------|
|---------4-0-2~--4-5~-----4-45424~------------------|
|----------------------------------------------------|
|----------------------------------------------------|
|----------------------------------------------------|
|
|----------------------------------------------------|
|----------------------------------------------------|
|----------------------------------------------------|
|-7-----------------5-------------4------4-4-4-4-4-4-|
|-5-------7---------3-3333-5------2------2-2-2-2-2-2-|
|---------5----------------3-3333--------.-.-.-.-.-.-|



 Riff 2b
|-------------------------------------------------------------------|
|-------------------------------------------------------------------|
|-------------------4-----------------------------------------------|
|-2-222-245-222-245---5-4-2---2-22-0----5---7-777-77-5-----2------0-|
|-------------------------------------------------------------------|
|-------------------------------------------------------------------|
|
|-------------------------------------------------------------------|
|-------------------------------------------------------------------|
|-------------------------------------------------------------------|
|----------------------------------------------------5--------------|
|-2--------------------------------5--------7--------3-333-333-33-5-|
|-0-000-000-000-000-000-000-000-00-3-333-33-5-555-55--------------3-|

|---------------------------------------------------------------------|
|---------------------------------------------------------------------|
|-------------------4-------------------------------------------------|
|-2-222-245-222-245---5-4-2---2-22-0----5---7-777-77-7-77-4-44-2-22-0-|
|---------------------------------------------------------------------|
|---------------------------------------------------------------------|
|
|---------------------------------------------------------------------|
|---------------------------------------------------------------------|
|---------------------------------------------------------------------|
|----------------------------------------------------7--------------4-|
|-2--------------------------------5--------7--------5--555-555-55--2-|
|-0-000-000-000-000-000-000-000-00-3-333-33-5-555-55------------------|

|-------------------------------------------------------------------|
|-------------------------------------------------------------------|
|-------------------4-----------------------------------------------|
|-2-222-245-222-245---5-4-2---2-22-0----5---7-777-77-5-----2------0-|
|-------------------------------------------------------------------|
|-------------------------------------------------------------------|
|
|-------------------------------------------------------------------|
|-------------------------------------------------------------------|
|-------------------------------------------------------------------|
|----------------------------------5------------------------------4-|
|-2--------------------------------3-333-33-5--------7------------2-|
|-0-000-000-000-000-000-000-000-00----------3-333-33-5-555-555-55---|

|-------------------------------------------------------------------|
|-------------------------------------------------------------------|
|-------------------4--------------------------------4--------------|
|-2-222-245-222-245---5-4-5----4-2-0---5----7-777-77----4---2h4p2---|
|-------------------------------------------------------------------|
|-------------------------------------------------------------------|
|
|-------------------------------------------------------------------|
|-------------------------------------------------------------------|
|-------------------------------------------------------------------|
|-5-----------------------------------------------------------------|
|-3-555-555-555-555-555-555-555-55-5--------7--------9--------------|
|----------------------------------3--------5--------7--------------|


 Acoustic fill (without strum shords, SORRY((((
|--------------------------------------------------|
|--------------------------------------------------|
|--------------------------------------------------|
|--------------------------------------------------|
|--------------------------------------------------|
|--------------------------------------------------|
|
|--------------------------------------------------|
|--------------------------------------------------|
|--------------------------------------------------|
|---------9-12-11-9-7-9~--12~-12-11-11h12p11p9\7/9-|
|-7-7-7-7------------------------------------------|
|--------------------------------------------------|

|--------------------------------------------------|
|---------------------------------------------8~---|
|---------------------------------------------9~---|
|---------------------------------------------9~---|
|--------------------------------------------------|
|--------------------------------------------------|
|
|--------------------------------------------------|
|--------------------------------------------------|
|--------------------------------------------------|
|---------9-12-11-9-7-9~---------------------------|
|-7-7-7-7-----------------10~-10-9-9h10p9p7\5/7~---|
|--------------------------------------------------|

|--------------------------------------------------|
|-7~--8------------------7-------/8-8-10-----------|
|-7~--9-7h9p7-----9~---9---9-7~----------11-9-11~--|
|-------------9-7-9~-------------------------------|
|--------------------------------------------------|
|--------------------------------------------------|
|
|--------------------------------------------------|
|--------------------------------------------------|
|-7~--9---------------------------7----7-----------|
|-------------9-7-5~---------9~------9---7~--------|
|--------------------------------------------------|
|--------------------------------------------------|

|-------------------------------------------------|
|-7h8-8~--888-10~---------------------------------|
|-7h9-9~--999-11~-11--9-11~-----------------------|
|-----------------12-11-12---9h11-12~--9~-7---9~--|
|-------------------------------------------7-9~--|
|-------------------------------------------------|
|
|-------------------------------------------------|
|--------------7----------------------------------|
|-7h9-9~---------------------7--------------------|
|------------------9--7--9~--------7~--9~-7-------|
|-------------------------------------------7-9~--|
|-------------------------------------------------|


 Riff 5
|-------------------------------------------------|
|-------------------------------------------------|
|-------------------------------------------------|
|-----------------------------------2-------------|
|-4----------------4----------------0-000-004-004-|
|-2-222-225-224-22-2-222-225-224-22---------------|

 Riff 5 endings
                 1&3          2
|---------------------|  |-------------------|  |-------------------|
|---------------------|  |-------------------|  |-------------------|
|---------------------|  |----4--------------|  |----4--------------|
|----6----------------|  |----6--------4--6--|  |----6--------6--4--|
|-44-4-444-4466446644-|  |-77-7-777-77-2--4--|  |-77-7-777-77-4--2--|
|---------------------|  |-------------------|  |-------------------|



 Solo riff 1 is the same as riff 5 but with much more palm muting.
 And you should play only 1st & 2nd endings.

 Solo riff 2
|--------------------------------------------------------------|
|--------------------------------------------------------------|
|--------------------------------------------------------------|
|------------------6----------------4--------------------------|
|-4----------------4-444-4466446644-2-222-227-22-4-6---4--4-2--|
|-2-222-225-224-22-------------------------------.-.-2-2--2-0--|
                                                     .
|------------------------------------------|
|------------------------------------------|
|------------------------------------------|
|-----------------------------7----7---9\--|
|-2---------------5-----------5-55-5-9-7\--|
|-0-000-003-0023--3-336-3356--5------7-----|
               .           .


 Ending riff
|-------------------------------------------------------------------|
|-------------------------------------------------------------------|
|-------------------------------------------------------------------|
|------------------------7-7-9-------5--------------------7-7-9--\--|
|-2------2------2------2-5-5-7-----5-3-5------5------7-7--5-5-7--\--|
|-0-0000-0-0000-0-0000-0-.-----000-3---3-3333-3-3333-5-5------------|
                       .                             .

  Visit MetalTabs.com for more metal tablature

bottom separator

Contact Us | Privacy Policy | Disclaimer | Legal Notice
Copyright © 2001-2014 MetalTabs.com. All Rights Reserved.