top separator

Home

Forum

FAQ

Contact Us

Link to Us

MetalTabs.com logo

Bands

0-9

A

B

C

D

E

F

G

H

I

J

K

L

M

N

O

P

Q

R

S

T

U

V

W

X

Y

Z

Godless Truth - "Deformed In Ecstasy" Guitar Tab

Plain Text Version
More Godless Truth Tabs

Hits: 3015
Rated: 5.00 out of 5 (1 vote)
Updated: 2005-08-17 16:07:04

By:

Yura


#----------------------------------PLEASE NOTE---------------------------------#
#This file is the author's own work and represents their interpretation of the #
#song. You may only use this file for private study, scholarship, or research. #
#Unless specified otherwise, this is NOT an official tab from the band members.#
#------------------------------------------------------------------------------#

  Visit MetalTabs.com for more metal tablature
  
--- GODLESS TRUTH  ---
                           "Deformed In Ecstasy"
                     From album: "Arrogance Of Supreme Power"
                     Copyright Lascerated Enemy Records 2004 
                     Transcribed by: Yura Kowalchuk
                     Contact:[yura_kowalchuk@mail.ru]
                             [yura@grindcore.net]
                    http://www.blood-scrapes.nm.ru
                    http://brutaltabs.musica.mustdie.ru

                            TABULATURE LEGEND:
                   " - tremolo             h - hammer on
                   ~ - vibrato             \ - slide down
                   p - pull off            / - slide down
                  tr - trill               ^ - pinch harmonics
                   = - sustained note      b - bend string
                p.m. - palm muting         t - tapping
                           <> - natural harmonic



TUNING: C [C, F, Bb, eb, g, c]

[Riff 1]
|---------------------------------------------|
|---------------------------------------------|
|---------------444-----333-------------------|
|---------------------------------------------|
|-555-555-6"...-----555-----444-555-555-6"...-|
|-333-333-----------------------333-333-------|
  ... ...       ... ... ... ... ... ...

[ending 1]
|----------------------10"..-|
|-----------------9"..-------|
|------7"..-10"..------------|
|----------------------------|
|-6"..-----------------------|
|----------------------------|
|                            |
|----------------------4"...-|
|-----------------6"..-------|
|------4"..-7"...------------|
|----------------------------|
|-6"..-----------------------|
|----------------------------|

[RIFF 1] [ENDING 1 (x4)] [RIFF 1] [ENDING 1] [RIFF 1] [ENDING 1 (x4)]

[Riff 2 (x3)]
||--------------------------|--------------------------|-
||o-------------------------|--------------------------|-
||------------------------7-|--------------------------|-
||------5-4-------------6---|-----5-4-----------5-4-^--|-
||o-6-5-3-2-5-4-3-4-3-5-----|-6-5-3-2-5-4-3-6-5-3-2-3~-|-
||--4-3-----3-2-1-2-1-------|-4-3-----3-2-1-4-3--------|-
    . . . . . . . . . . . .   . . . . . . . . . . .

-|-------------------------|--------------------------||
-|-------------------------|-------------------------o||
-|-----------------------7-|--------------------------||
-|-----5-4-------------6---|-----5-4------------------||
-|-6-5-3-2-5-4-3-4-3-5-----|-6-5-3-2-5-4-3-7-6-3-3-3-o||
-|-4-3-----3-2-1-2-1-------|-4-3-----3-2-1-5-4-1-1-1--||
   . . . . . . . . . . . .   . . . . . . . . . . . .

[Riff 3]
|-------------------------|--------------------------|-
|-------------------------|--------------------------|-
|-------------------8-----|--------------------------|-
|-------------2-6-5---5-4-|--------------------5-4-3-|-
|-4-----3-----------------|-4-----3-----55-6-4-5-4-3-|-
|-2-0-0-1-0-0-------------|-2-0-0-1-0-0-55-6-4-------|-
    . .   . . . . . . . .     . .   . . .. . . . . .

-|-------------------------------------|
-|-------------------------------------|
-|-------------------8-----4-5---------|
-|-------------2-6-5---5-4-----4-5-4---|
-|-4-----3---------------------------3-|
-|-2-0-0-1-0-0-------------------------|
     . .   . . . . . . . . . . . . . .

[Riff 4 (x2)]
||--------------------------|-------------------------|-
||o-------------------------|-------------------------|-
||--------4-5---------4-5---|-6-7---4-5---------------|-
||------------4-----------4-|-----6-----4-5-3---3-----|-
||o-4-4-4-------4-4-4-------|-----------------2---2-1-|-
||--2-2-2-------2-2-2-------|-------------------------|-
|   . . . . . . . . . . . . | . . . . . . . . . . . . |
||--------------------------|-------------------------|-
||o-------------------------|-------------------------|-
||--------4-5---------4-5---|-6-7---4-5---------------|-
||------------4-----------4-|-----6-----4-5-3---3-----|-
||o-4-4-4-------4-4-4-------|-----------------2---2-1-|-
||--2-2-2-------2-2-2-------|-------------------------|-
    . . . . . . . . . . . .   . . . . . . . . . . . .

-|-------------------------|--------------------------||
-|-------------------------|-------------------------o||
-|-------4-5---------4-5---|-6-7---4-5----------------||
-|-----------4-----------4-|-----6-----4-5-3---3------||
-|-4-4-4-------4-4-4-------|-----------------2---2-1-o||
-|-2-2-2-------2-2-2-------|--------------------------||
 | . . . . . . . . . . . . | . . . . . . . . . . . .   |
-|-------------------------|--------------------------||
-|-------------------------|-------------------------o||
-|-------4-5---------4-5---|-3-4---1-2----------------||
-|-----------4-----------4-|-----3-----1--------------||
-|-4-4-4-------4-4-4-------|-------------7-5---5-----o||
-|-2-2-2-------2-2-2-------|-----------------4---4-3--||
   . . . . . . . . . . . .   . . . . . . . . . . . .

[RIFF 3]

[Riff 5 (x2)]
||----------------------------|-
||o---------------------------|-
||----------------------------|-
||----------------------------|-
||o-556-5-4-667-6-5-4-556-5-4-|-
||--334-3-2-445-4-3-2-334-3-2-|-
    ... . . ... . . . ... . .

-|----------------------------------------------||
-|---------------------------------------------o||
-|----------------------------------------------||
-|----------------------------------------------||
-|-667-6-5-4-556-5-4-667-6-5-4-556-5-4-556-556-o||
-|-445-4-3-2-334-3-2-445-4-3-2-334-3-2-334-334--||
   ... . . . ... . . ... . . . ... . . ... ...

                  [Riff 6 (x2)]
|-----------------||----------------------------------------|
|-----------------||o---------------------------------------|
|-444-----333-----||----------------------------------------|
|-----------------||-----------8-6--------------5-3---3-----|
|-----555-----444-||o-6"...--7-6-4-6-5-4--6"...-----2---2-1-|
|-----------------||---------5------------------------------|
  ... ... ... ...            . . . . . .        . . . . . .

-|---------------------------------||
-|--------------------------------o||
-|--------------------444-----333--||
-|----------8-6--------------------||
-|-6"...--7-6-4-6-5-4-----555-----o||
-|--------5------------------------||
          . . . . . . ... ... ...

                           [Riff 7 (x7)]
|--------------------------||----------------------------||
|--------------------------||o--------------------------o||
|------------------444-----||-------------------444------||
|--------------------------||----------------------------||
|---5-3-^--------------555-||o---5-3-^--------------555-o||
|-3-3-1-3~-555-666---------||--3-3-1-3~-555-666----------||
| .   .    ... ... ... ... |   .   .    ... ... ... ...   |
|--------------------------||----------------------------||
|--------------------------||o--------------------------o||
|------------------444-----||-------------------444------||
|--------------------------||----------------------------||
|-5--------------------555-||o---5-3-^--------------555-o||
|-3--------555-666---------||--3-3-1-3~-555-666----------||
  .        ... ... ... ...     .   .    ... ... ... ...

[Riff 8 (x2)]
||----------------------------------|----------------------------------||
||o---------------------------------|-------------------------6-------o||
||--------3-------5-------3---------|-------3-------5-----------7------||
||------------6-4-------------7-----|-----------6-4---------------8-7--||
||o---5-4---4---------5-4---4---5-7-|---5-4---4-------7-7-7-7---------o||
||--6---------------6---------------|-6---------------6-6-6-6----------||
    . . . . . . . . . . . . . . . .   . . . . . . . . . . . . . . . .

          [Riff 9 (x2)]
|---------||----------------------------------|-
|---------||o-6-------6-------6-------6-------|-
|---------||----7-------7-------7-------7-----|-
|---------||------8-7-----8-7-----8-7-----8-7-|-
|-7-7-7-7-||o---------------------------------|-
|-6-6-6-6-||----------------------------------|-

-|---------------------------------|-
-|---------------------------------|-
-|---------------------------------|-
-|-6-------6-------6-------6-------|-
-|---8-------8-------8-------8-----|-
-|-----8-7-----8-7-----8-7-----8-7-|-
   . . . . . . . . . . . . . . . .

-|---------------------------------|----------------------------------||
-|-6-------6-------5-------6-------|---------------------------------o||
-|---7-------7-------7-------7-----|----------------------------------||
-|-----8-7-----8-7-----8-7-----8-7-|-6-----8-6-----8-6-----8-6-----8--||
-|---------------------------------|---8-7-----8-7-----8-7-----8-7---o||
-|---------------------------------|----------------------------------||
                                    . . . . . . . . . . . . . . . .

[Riff 10 (x2)]
||----------------------------------|--------------------------||
||o---------------------------------|-------------------------o||
||----------------5-----------------|---------------5----------||
||--------8---6-4---------8---6-----|-------8---6-4-------2-0--||
||o---5-4---4---------5-4---4---5-7-|---5-4---4-------0-1-2-0-o||
||--6---------------6---------------|-6---------------0-1------||
    . . . . . . . . . . . . . . . .   . . . . . . . . . . . .

[RIFF 1] [ENDING 1] [RIFF 1] [ENDING 1 (x4)] [RIFF 3] [RIFF 5 (x2)]

END OF SONG

  Visit MetalTabs.com for more metal tablature

bottom separator

Contact Us | Privacy Policy | Disclaimer
Copyright © 2001-2014 MetalTabs.com. All Rights Reserved.