top separator

Home

Forum

What's New

Submit a Tab

FAQ

Links

Contact Us

Link to Us

MuSpy.com

MetalTabs.com logo

Bands

0-9

A

B

C

D

E

F

G

H

I

J

K

L

M

N

O

P

Q

R

S

T

U

V

W

X

Y

Z

Search

What

Where
 

Godless Truth - "Instructed To Degrate" Guitar Tab

Plain Text Version
More Godless Truth Tabs

Hits: 2561
Updated: 2005-08-17 16:06:37

 

By:

Yura

sendpm.gif

email.gif

Important note
This tab is available online because we obtained explicit permission from Godless Truth or their label.


#----------------------------------PLEASE NOTE---------------------------------#
#This file is the author's own work and represents their interpretation of the #
#song. You may only use this file for private study, scholarship, or research. #
#Unless specified otherwise, this is NOT an official tab from the band members.#
#------------------------------------------------------------------------------#

  Visit MetalTabs.com for more metal tablature
  
--- GODLESS TRUTH  ---
                           "Instucted To Degrade"
                     From album: "Arrogance Of Supreme Power"
                     Copyright Lascerated Enemy Records 2004 
                     Transcribed by: Yura Kowalchuk
                     Contact:[yura_kowalchuk@mail.ru]
                             [yura@grindcore.net]
                    http://www.blood-scrapes.nm.ru
                    http://brutaltabs.musica.mustdie.ru

                            TABULATURE LEGEND:
                   " - tremolo             h - hammer on
                   ~ - vibrato             \ - slide down
                   p - pull off            / - slide down
                  tr - trill               ^ - pinch harmonics
                   = - sustained note      b - bend string
                p.m. - palm muting         t - tapping
                           <> - natural harmonic



TUNING: C [C, F, Bb, eb, g, c]

[Riff 1]
|-------------------------|------------------------------|-
|-------------------------|------------------------------|-
|-------------------------|------------------------------|-
|---------6-------2-2-2-2-|------------5-2-4-1-3---------|-
|-6---4-----4-3-2---------|-1111111111-----------555-555-|-
|---5---3-----------------|------------------------------|-
  . . . . . . . . . . . .   .......... . . . . . ... ...

-|------------------------------|-------------------------|-
-|------------------------------|-------------------------|-
-|------------------------------|-------------------------|-
-|------------------4--5--------|---------6-------2-2-2-2-|-
-|------------------2--3--5--6--|-6---4-----4-3-2---------|-
-|-1111111155554444-------3--4--|---5---3-----------------|-
   ................               . . . . . . . . . . . .

-|------------------------------|--------------------------------------------|
-|------------------------------|--------------------------------------------|
-|------------------------------|--------------------------------------------|
-|------------5-2-4-1-3---------|------------------4--5------4-5-8-9---------|
-|-1111111111-----------555-555-|------------------2--3--5-6-2-3-6-7-8-8-8-8-|
-|------------------------------|-1111111155554444-------3-4---------6-6-6-6-|
   .......... . . . . . ... ...   ................       . . . . . . . . . .

[Riff 2a (x2)]
||----------------------------------------------|-
||o---------------------------------------------|-
||----------------------------------------------|-
||--6-------7-8-6-------7-8-6-------7-8---------|-
||o---5---4-------5---4-------5---4-----8-8-8-8-|-
||------5-----------5-----------5-------6-6-6-6-|-
    . . . . . . . . . . . . . . . . . . . . . .

-|--------------------------------------------------||
-|-------------------------------------------------o||
-|--------------------------------------------------||
-|-6-------7-8-6-------7-8-6-------7-8--------------||
-|---5---4-------5---4-------5---4-----8-8-5-5-5-5-o||
-|-----5-----------5-----------5-------6-6-3-3-3-3--||
   . . . . . . . . . . . . . . . . . . . . . . . .

[Riff 2b (x2)]
||----------------------------------------------|-
||o---------------------------------------------|-
||----------------------------------------------|-
||--6-------7-8-6-------7-8-6-------7-8---------|-
||o---5---4-------5---4-------5---4-----8-8-8-8-|-
||------5-----------5-----------5-------6-6-6-6-|-
|   . . . . . . . . . . . . . . . . . . . . . . |
||----------------------------------------------|-
||o---------------------------------------------|-
||----------------------------------------------|-
||--6-------7-8-6-------7-8-6-------7-8---------|-
||o---5---4-------5---4-------5---4-----4".....-|-
||------5-----------5-----------5-------6".....-|-
    . . . . . . . . . . . . . . . . . .

-|--------------------------------------------------||
-|-------------------------------------------------o||
-|--------------------------------------------------||
-|-6-------7-8-6-------7-8-6-------7-8--------------||
-|---5---4-------5---4-------5---4-----8-8-5-5-5-5-o||
-|-----5-----------5-----------5-------6-6-3-3-3-3--||
 | . . . . . . . . . . . . . . . . . . . . . . . .   |
-|--------------------------------------------------||
-|-------------------------------------------------o||
-|--------------------------------------------------||
-|-6-------7-8-6-------7-8-6-------7-8--------------||
-|---5---4-------5---4-------5---4-----4".........-o||
-|-----5-----------5-----------5-------6".........--||
   . . . . . . . . . . . . . . . . . . . . . . . .

[Riff 3 (x2)]
||-----------------------------------------------------------------------||
||o---------------------------------------------------------------------o||
||------------------------------------------------------------------5-6--||
||------------------------------4---------------------------5-4-3-2-3-4--||
||o-6---4---6---4---6---4---6-----3-6---4---6---4---6---4---3-2-1-0-----o||
||----5---3---5---3---5---3---5-------5---3---5---3---5---3--------------||
    . . . . . . . . . . . . . . . . . . . . . . . . . . . . . . . . . .

[RIFF 2a (x2)]

[Riff 4 (x4)]
||---------------------------------------|-
||o--------------------------------------|-
||---------------------------------------|-
||-----------------------5---------------|-
||o-4-5-4-3-1111-4-5-4-3-----5-3-4-5-4-3-|-
||--2-3-2-1------2-3-2-1---6-----2-3-2-1-|-
    . . . . .... . . . . . . . . . . . .

-|---------------------------------------||
-|--------------------------------------o||
-|-----3333------------------------------||
-|---------222244445555------------------||
-|-1111----------------3333444411112222-o||
-|---------------------------------------||
   ....................................

[Riff 5 (x2)]
||-------------------------------------|-
||o------------------------------------|-
||-------------------------------------|-
||--6-7-8888-----6666-6-7-8888-4h7-3h6-|-
||o-4-5------8-7------4-5--------------|-
||-----------6-5-----------------------|-
    . . .... . . .... . . ....

-|------------------------------------------|-
-|------------------------------------------|-
-|------------------------------------------|-
-|-6-7-8888-----6666-6-7-4444--3-5555-4-----|-
-|-4-5------8-7------4-5-------1------2-6-7-|-
-|----------6-5-------------------------4-5-|-
   . . .... . . .... . . ....  . .... . . .

-|------------------------------------|-
-|------------------------------------|-
-|------------------------------------|-
-|-6-7-8888-----6666-6-7-8888-4h7-3h6-|-
-|-4-5------8-7------4-5--------------|-
-|----------6-5-----------------------|-
   . . .... . . .... . . ....

-|----------------------------------------||
-|---------------------------------------o||
-|----------------------------------------||
-|-6-7-8888-----6666-6-7-44-4-5555-4------||
-|-4-5------8-7------4-5-----------2-6-7-o||
-|----------6-5----------------------4-5--||
   . . .... . . .... . . .. . .... . . .

[Bass solo fade in...)                   [Outro]
|---------|---------|---------|---------|---------------------------------|-
|---------|---------|---------|---------|---------------------------------|-
|---------|---------|---------|---------|---------------------------------|-
|---------|---------|---------|---------|-----------------------------6-5-|-
|---------|---------|---------|---------|-6-5-4-5-6-5-4-5-6-5-4-5-6-5-4-3-|-
|---------|---------|---------|---------|-4-3-2-3-4-3-2-3-4-3-2-3-4-3-----|-
                                          . . . . . . . . . . . . . .

-|-----------------------13-16-13--------------13-16-13--------|-
-|--------------------14----------14--------14----------14-----|-
-|-----------------13----------------13--13----------------13--|-
-|-------------------------------------------------------------|-
-|-6-5-4-5-6-5-4-5---------------------------------------------|-
-|-4-3-2-3-4-3-2-3---------------------------------------------|-
   . . . . . . . .

-|---------------------------------|--------------------------------|
-|---------------------------------|--------------------------------|
-|---------------------------------|--------------------------------|
-|-----------------------------6-5-|-----------------5-4-3--5-4-2---|
-|-6-5-4-5-6-5-4-5-6-5-4-5-6-5-4-3-|-6-5-4-5-6-5-4-5-3-2-1--3-2-0---|
-|-4-3-2-3-4-3-2-3-4-3-2-3-4-3-----|-4-3-2-3-4-3-2-3----------------|
   . . . . . . . . . . . . . .       . . . . . . . . . .    . . .

[Riff 6 (x2)]
||------------------------------|------------------------------------|-
||o-----------------------------|------------------------------------|-
||------------------------------|----------------------------6-6-----|-
||------------------------------|-----------------3--3-3-4-4-----2-2-|-
||o-6----6-7-6---3--2---------8-|-6----6-7-6---3--1--------------3-3-|-
||--4--0-4-5-4-0-1--0---0-0-0-6-|-4--0-4-5-4-0-1---------------------|-
       . .     .        . . . .      . .     . .     . . . . . . . .

-|-----------------------------|-[ending 1]----------------------||
-|-----------------------------|--------------------------------o||
-|-----------------------------|---------------------------------||
-|-----------------------------|------------------3------3---4---||
-|-6----6-7-6---3--2---------8-|-6----6-7-6---3---1------1---2--o||
-|-4--0-4-5-4-0-1--0---0-0-0-6-|-4--0-4-5-4-0-1-0---0-0----0-----||
      . .     .        . . . .      . .     .   .   . .    .

-|-[ending 2]---------------------------------|
-|--------------------------------------------|
-|--------------------------------------------|
-|------------------4-------------------------|
-|-6----6-7-6---5---2-----3==================-|
-|-4--0-4-5-4-0-3-0---0-3-1==================-|
      . . .   .   .   . .

[Riff 7a (x2)]
||--------------------|-----------------------||
||o-------------------|----------------------o||
||--------------------|-----------------------||
||--------5--------7--|-------5--------5--6---||
||o-5--6--3--6--7--5--|-5--6--3--6--7--3--4--o||
||--3--4-----4--5-----|-3--4-----4--5---------||
    .  .     .  .       .  .     .  .  .

[Riff 7b (x2)]
||----------------------|--------------------------||
||o---------------------|-------------------------o||
||----------------------|--------------------------||
||---------5---------7--|--------5--------5--6-----||
||o-5-5-6--3--6-6-7--5--|-5-5-6--3--6--7--3--4----o||
||--3-3-4-----4-4-5-----|-3-3-4-----4--5-----------||
    . . .     . . .       . . .     .  .  .

              [Riff 8 (x4)]
|-------------||------------------------------|-[ending 1,2,3]-----------||
|-------------||o-----------------------------|-------------------------o||
|-------------||------------------------------|--------------------------||
|-------------||------------------------------|-------------5-5----------||
|-4-3---------||o-4-3-------------3-4-4-3-----|-------------3-3-7-7-5-6-o||
|-----6-0-1-2-||------6-0-1-2-4-5---------6-0-|-1-2-3-4-4-5-----5-5------||
| . . . . . . |   . . . . . . . . . . . . . . | . . . . . . . . . . . .   |
|-------------||------------------------------|-[ending 1,2,3]-----------||
|-------------||o-----------------------------|-------------------------o||
|-------------||------------------------------|--------------------------||
|-------------||------------------------------|-------------5-5----------||
|-------------||o-4-3-------------3-4-4-3-----|-------------3-3-7-7-5-6-o||
|-------------||------6-0-1-2-4-5---------6-0-|-1-2-3-4-4-5-----5-5------||
                  . . . . . . . . . . . . . .   . . . . . . . . . . . .

-|-[ending 4]--------------|
-|-------------------------|
-|-------------------------|
-|-------------5-5---------|
-|-----5-5-6-7-3-3-7-7-5-6-|
-|-1-2-3-3-4-5-----5-5-----|
 | . . . . . . . . . . . . |
-|-[ending 4]--------------|
-|-------------------------|
-|-------------------------|
-|-------------5-5---------|
-|-----5-5-6-7-3-3-7-7-5-6-|
-|-1-2-3-3-4-5-----5-5-----|
   . . . . . . . . . . . .

[RIFF 2a]

[Ending]
|-------------------------------------|-
|-------------------------------------|-
|-------------------------------------|-
|-6-------7-8-6-------7-8-6-------7-8-|-
|---5---4-------5---4-------5---4-----|-
|-----5-----------5-----------5-------|-
| . . . . . . . . . . . . . . . . . . |
|-------------------------------------|-
|-------------------------------------|-
|-------------------------------------|-
|-6-------7-8-6-------7-8-6-------7-8-|-
|---5---4-------5---4-------5---4-----|-
|-----5-----------5-----------5-------|-
  . . . . . . . . . . . . . . . . . .

-|------------------------------------------------------|
-|------------------------------------6--5--------------|
-|-----33332222-----------------6--7--------------------|
-|-----------------6666---------------3--2--------------|
-|-4444--------4444-------------4--5--------8-8-5-5-5-5-|
-|---------------------55556666-------------6-6-3-3-3-3-|
 | ............................             . . . . . . |
-|------------------------------------------------------|
-|------------------------------------------------------|
-|-----33332222-----------------------7--6--------------|
-|-----------------6666---------8--9--------------------|
-|-4444--------4444-------------------5--4--8-8-5-5-5-5-|
-|---------------------55556666-6--7--------6-6-3-3-3-3-|
   ............................             . . . . . .

END OF SONG

  Visit MetalTabs.com for more metal tablature

bottom separator

Contact Us | Privacy Policy | Disclaimer | Legal Notice
Copyright © 2001-2014 MetalTabs.com. All Rights Reserved.