top separator

Home

Forum

What's New

Submit a Tab

FAQ

Links

Contact Us

Link to Us

MetalTabs.com logo

Bands

0-9

A

B

C

D

E

F

G

H

I

J

K

L

M

N

O

P

Q

R

S

T

U

V

W

X

Y

Z

Search

What

Where
 

Godless Truth - "Reprobate Intention" Guitar Tab

Plain Text Version
More Godless Truth Tabs

Hits: 3556
Updated: 2005-08-17 16:04:05

 

By:

Yura

sendpm.gif

email.gif

Important note
This tab is available online because we obtained explicit permission from Godless Truth or their label.


#----------------------------------PLEASE NOTE---------------------------------#
#This file is the author's own work and represents their interpretation of the #
#song. You may only use this file for private study, scholarship, or research. #
#Unless specified otherwise, this is NOT an official tab from the band members.#
#------------------------------------------------------------------------------#

  Visit MetalTabs.com for more metal tablature
  
--- GODLESS TRUTH  ---
                           "Reprobate Intention"
                     From album: "Arrogance Of Supreme Power"
                     Copyright Lascerated Enemy Records 2004 
                     Transcribed by: Yura Kowalchuk
                     Contact:[yura_kowalchuk@mail.ru]
                             [yura@grindcore.net]
                    http://www.blood-scrapes.nm.ru
                    http://brutaltabs.musica.mustdie.ru

                            TABULATURE LEGEND:
                   " - tremolo             h - hammer on
                   ~ - vibrato             \ - slide down
                   p - pull off            / - slide down
                  tr - trill               ^ - pinch harmonics
                   = - sustained note      b - bend string
                p.m. - palm muting         t - tapping
                           <> - natural harmonic



TUNING: C [C, F, Bb, eb, g, c]

[Riff 1a (x2)]
||------------------------------------------------------|-
||o-----------------------------------------------------|-
||------------------------------------------------------|-
||-------------------------------------------------5555-|-
||o-777777---777777-------5555777777---777777-----------|-
||---------0--------007777-----------0-------007777-----|-
    ...... . ...... ................ . ................

-|--------------------------------------------------||
-|-------------------------------------------------o||
-|--------------------------------------------------||
-|------------------------------------5-4-----------||
-|-777777---777777-------5555-8-7-5-6-3-2-55555555-o||
-|--------0--------007777-----6-5-3-4---------------||
   ...... . ...... .......... . . . . . . ........

[Riff 1b (x2)]
||------------------------------------------------------|-
||o-----------------------------------------------------|-
||--444444---444444-----------444444---444444-----------|-
||-------------------------------------------------5555-|-
||o-----------------------5555--------------------------|-
||---------0--------007777-----------0-------007777-----|-
|   ...... . ...... ................ . ................
||------------------------------------------------------|-
||o-----------------------------------------------------|-
||------------------------------------------------------|-
||-------------------------------------------------5555-|-
||o-777777---777777-------5555777777---777777-----------|-
||---------0--------007777-----------0-------007777-----|-
    ...... . ...... ................ . ................

-|--------------------------------------------------||
-|-------------------------------------------------o||
-|-444444---444444----------------------------------||
-|------------------------------------5-4-----------||
-|-----------------------5555-8-7-5-6-3-2-55555555-o||
-|--------0--------007777-----6-5-3-4---------------||
 | ...... . ...... .......... . . . . . . ........   |
-|--------------------------------------------------||
-|-------------------------------------------------o||
-|--------------------------------------------------||
-|------------------------------------5-4-----------||
-|-777777---777777-------5555-8-7-5-6-3-2-55555555-o||
-|--------0--------007777-----6-5-3-4---------------||
   ...... . ...... .......... . . . . . . ........

[Riff 2]
|--------------------------------|-----------------------------------|-
|--------------------------------|-----------------------------------|-
|--------------------------------|-----------------------------------|-
|---------------------77----5555-|-----------------------------------|-
|-4444444444444444------5555-----|-4444444444444444------------------|-
|-----------------5555-----------|------------------5"/....17"\...5"-|-
| .............................. | ................                  |
|--------------------------------|-----------------------------------|-
|--------------------------------|-----------------------------------|-
|--------------------------------|-----------------------------------|-
|-6-------------------77----5555-|-----------------------------------|-
|-4---------------------5555-----|-4444444444444444------------------|-
|-4---------------5555-----------|------------------5"/....17"\...5"-|-
  .               ..............   ................

-|------------------------------------------------|
-|------------------------------------------------|
-|------------------------------------------------|
-|---------------------77----5555-----------------|
-|-4444444444444444------5555----4444444444444444-|
-|-----------------5555---------------------------|
 | .............................................. |
-|------------------------------------------------|
-|------------------------------------------------|
-|------------------------------------------------|
-|---------------------77----5555-----------------|
-|-4444444444444444------5555----4444444444444444-|
-|-----------------5555---------------------------|
   ..............................................

[Riff 3 (x2)]
||----------------------------------------------------|-
||o---------------------------------------------------|-
||----------------------------------------------------|-
||-----------3----------4-5------------3--------------|-
||o-5--6--4--1-5--6---4-2-3---5--6--4--1----5-----5p4-|-
||--3--4--2----3--4---2-------3--4--2-----6---6-0-----|-
                      . .                 . . . .

-|--------------------------------------------------------||
-|-------------------------------------------------------o||
-|--------------------------------------------------------||
-|----------3----------4-5------------3-------------------||
-|-5--6--4--1-5--6---4-2-3---5--6--4--1-5--6--3333444444-o||
-|-3--4--2----3--4---2-------3--4--2----3--4--------------||
                                              ..........

[Riff 4 (x4)]
||-----------------------------------|-----------------------------------||
||o----------------------------------|----------------------------------o||
||-----------------------------------|-----------------------------------||
||-----------------------------------|-----------------------------------||
||o-------------11------------223333-|-------------11333344444444444444-o||
||--333344442222--333344444422-------|-333344442222----------------------||
    ................................   ................................

[Riff 5a (x8)]
||---------------------------------------||
||o-------------------------------------o||
||---------2"...-------------------------||
||--------------------------------3"...--||
||o-----------------------4-3-2-1-------o||
||--3"--2"-------2"-3"-2"----------------||

[Riff 5b (x4)]
||------------------------------||
||o----------------------------o||
||-------2"...------------------||
||-----------------------3"...--||
||o-5--4-------4-5-4-554-------o||
||--3--2-------2-3-2-332--------||
    .  .       . . . ...

[Riff 6 (x2)]
||----------------------------------|----------------------------------||
||o---------------------------------|---------------------------------o||
||----------------------------------|----------------------------------||
||----------6-5-7-6-------6-----4-3-|---------6-5-7-6-9-8-5-6----------||
||o-3-4-5-4-4-3-5-4-----3---7-6-----|-3-4-5-4-4-3-5-4-7-6-3-4-8-7-5---o||
||--1-2-3-2---------6-5-------------|-1-2-3-2-----------------6-5-3----||
    . . . . . . . . . . . . . . . .   . . . . . . . . . . . . . . .

[Riff 7 (x4)]
||---------------------------|-----------------------------||
||o--------------------------|----------------------------o||
||---------------------------|-----------------------------||
||--4-3------------8-7--6-7--|-4-3------------8-7--6-7-8---||
||o-2-1--5-6--7-8--6-5--4-5--|-2-1--5-6--7-8--6-5--4-5-6--o||
||-------3-4--5-6------------|------3-4--5-6---------------||
    . .  . .  . .  . .  . .    . .  . .  . .  . .  . .

                      [Riff 8 (x2)]
|---------------------||----------------------------------|-
|---------------------||o---------------------------------|-
|---------------2"...-||----------------------------------|-
|---------------------||--5---------------5---------------|-
|-4-5-4-554-5-4-------||o-3-4-3-4-4-3-4-5-3-4-3-4-4-3-4-5-|-
|-2-3-2-332-3-2-------||----2-1-2-2-1-2-3---2-1-2-2-1-2-3-|-
| . . . ... . .       |     . . . . . . .   . . . . . . . |
|---------------------||----------------------------------|-
|---------------------||o---------------------------------|-
|---------------------||----------------------------------|-
|---------------------||--5---------------5---------------|-
|---------------------||o-3-4-3-4-4-3-4-5-3-4-3-4-4-3-4-5-|-
|---------------------||----2-1-2-2-1-2-3---2-1-2-2-1-2-3-|-
                            . . . . . . .   . . . . . . .

-|----------------------------------|---------------------------------|-
-|----------------------------------|---------------------------------|-
-|----------------------------------|---------------------------------|-
-|-5---------------------^----------|-5---------------5---------------|-
-|-3-4-3-4-4-3-4-5-4-3-2-4~-5-4-3-2-|-3-4-3-4-4-3-4-5-3-4-3-4-4-3-4-5-|-
-|---2-1-2-2-1-2-3----------3-2-1-0-|---2-1-2-2-1-2-3---2-1-2-2-1-2-3-|-
 |   . . . . . . . . . .    . . . . |   . . . . . . .   . . . . . . . |
-|----------------------------------|---------------------------------|-
-|----------------------------------|---------------------------------|-
-|----------------------------------|---------------------------------|-
-|-5---------------------^----------|-5---------------5---------------|-
-|-3-4-3-4-4-3-4-5-4-3-2-4~-5-4-3-2-|-3-4-3-4-4-3-4-5-3-4-3-4-4-3-4-5-|-
-|---2-1-2-2-1-2-3----------3-2-1-0-|---2-1-2-2-1-2-3---2-1-2-2-1-2-3-|-
     . . . . . . . . . .    . . . .     . . . . . . .   . . . . . . .

-|------------------------------------------||
-|-----------------------------------------o||
-|------------------------------------------||
-|-5---------------77---88---1010---1212----||
-|-3-4-3-4-4-3-4-5---5----7------9------11-o||
-|---2-1-2-2-1-2-3--------------------------||
 |   . . . . . . . ...  ...  ...    ...      |
-|------------------------------------------||
-|-----------------------------------------o||
-|------------------------------------------||
-|-5---------------77---88---1010---1212----||
-|-3-4-3-4-4-3-4-5---5----7------9------11-o||
-|---2-1-2-2-1-2-3--------------------------||
     . . . . . . . ...  ...  ...    ...

[Outro 1]
|----------------------------------------------|-
|----------------------------------------------|-
|----------------------------------------------|-
|---77---88---1010---1212------77---88---1010--|-
|-----5----7------9------11------5----7------9-|-
|----------------------------------------------|-
    ...  ...  ...    ...       ...  ...  ...

-|----------------------|
-|----------------------|
-|----------------------|
-|--77---88-----77------|
-|----5----7------5-----|
-|----------------------|
    ...  ...    ...

[Riff 9 (x8)]
||------------------------------||
||o----------------------------o||
||------4-----------4-7-6-------||
||--5-3-2-------6-5-2-5-4-------||
||o-3-1---6---44--3-2-5-4-6-5--o||
||--------4-------3-------4-3---||
    . . . .   ... . . . . . .

[Riff 10 (x2)] /udner solo/
||-----------------------|----------------------------||
||o----------------------|---------------------------o||
||------3----------------|-----3----------------------||
||--5-3-1-----5===......-|-5-3-1-----5----8===......--||
||o-3-1---5-6-3===......-|-3-1---5-6-3----6===......-o||
||--------3-4-3===......-|-------3-4-3--0-6===......--||
    . . . . .              . . . . .    .

[Outro 2]
|---------------|-----------------------|-----------------------|
|---------------|-----------------------|-----------------------|
|-----3---------|-----------------------|-----------------------|
|-5-3-1-----5---|-------5---------5-----|-------5---------5-----|
|-3-1---5-6-3---|-4-5-4-3-6-4-5-4-3-4-3-|-4-5-4-3-6-4-5-4-3-4-3-|
|-------3-4-3---|-2-3-2---4-2-3-2---2-1-|-2-3-2---4-2-3-2---2-1-|
| . . . . . .   |                       |                       |
|---------------|-----------------------|-----------------------|
|---------------|-----------------------|-----------------------|
|-----3---------|-----------------------|-----------------------|
|-5-3-1-----5---|-----------------------|-----------------5-----|
|-3-1---5-6-3---|-----------------------|-----------------3-4-3-|
|-------3-4-3---|-----------------------|-------------------2-1-|
  . . . . . .                                             . . .

[Riff 11]
||--------------------[x2]-||-||--------------------[x6]-||-
||o-----------------------o||-||o-----------------------o||-
||-------------------------||-||-------------------------||-
||--------5---------5------||-||--------5---------5------||-
||o-4-5-4-3-6-4-5-4-3-4-3-o||-||o-4-5-4-3-6-4-5-4-3-4-3-o||-
||--2-3-2---4-2-3-2---2-1--||-||--2-3-2---4-2-3-2---2-1--||-
|                           | |   . . . . . . . . . . .   |
||--------------------[x2]-||-||--------------------[x6]-||-
||o-----------------------o||-||o-----------------------o||-
||-------------------------||-||-------------------------||-
||--------5---------5------||-||--------5---------5------||-
||o-4-5-4-3-6-4-5-4-3-4-3-o||-||o-4-5-4-3-6-4-5-4-3-4-3-o||-
||--2-3-2---4-2-3-2---2-1--||-||--2-3-2---4-2-3-2---2-1--||-
                                  . . . . . . . . . . .

-||---------------------[x2]-||-
-||o------------------------o||-
-||--------------------------||-
-||--------5---------5-------||-
-||o-4-5-4-3-6-4-5-4-3-4-3--o||-
-||--2-3-2---4-2-3-2---2-1---||-
 |                            |
-||---------------------[x2]-||-
-||o------------------------o||-
-||--------------------------||-
-||--------5---------5-------||-
-||o-4-5-4-3-6-4-5-4-3-4-3--o||-
-||--2-3-2---4-2-3-2---2-1---||-

-||--------------------[x4]-||----------------|
-||o-----------------------o||----------------|
-||-------------------------||----------------|
-||--------5---------5------||-------5--------|
-||o-4-5-4-3-6-445-4-3-4-3-o||-445-4-3-4-3----|
-||--2-3-2---4-223-2---2-1--||-223-2---2-1----|
 |   . . . . . ... . . . .   | ... . . . .    |
-||--------------------[x4]-||----------------|
-||o-----------------------o||----------------|
-||-------------------------||----------------|
-||--------5---------5------||----------------|
-||o-4-5-4-3-6-445-4-3-4-3-o||----------------|
-||--2-3-2---4-223-2---2-1--||----------------|
     . . . . . ... . . . .

[RIFF 2] [RIFF 5a (x4)] [RIFF 5b (x3)]

[Ending]
|--------------------------------|
|--------------------------------|
|-----2222---------------2222----|
|--------------------------------|
|-5-4------4-5-4-554-5-4---------|
|-3-2------2-3-2-332-3-2---------|
  . . .... . . . ... . . ....

END OF SONG

  Visit MetalTabs.com for more metal tablature

bottom separator

Contact Us | Privacy Policy | Disclaimer | Legal Notice
Copyright © 2001-2014 MetalTabs.com. All Rights Reserved.