top separator

Home

Forum

What's New

Submit a Tab

FAQ

Links

Contact Us

Link to Us

MetalTabs.com logo

Bands

0-9

A

B

C

D

E

F

G

H

I

J

K

L

M

N

O

P

Q

R

S

T

U

V

W

X

Y

Z

Search

What

Where
 

Godless Truth - "Driven To Lacerate" Guitar Tab

Plain Text Version
More Godless Truth Tabs

Hits: 3065
Rated: 5.00 out of 5 (1 vote)
Updated: 2005-08-17 16:03:42

 

By:

Yura

sendpm.gif

email.gif

Important note
This tab is available online because we obtained explicit permission from Godless Truth or their label.


#----------------------------------PLEASE NOTE---------------------------------#
#This file is the author's own work and represents their interpretation of the #
#song. You may only use this file for private study, scholarship, or research. #
#Unless specified otherwise, this is NOT an official tab from the band members.#
#------------------------------------------------------------------------------#

  Visit MetalTabs.com for more metal tablature
  
--- GODLESS TRUTH  ---
                            "Driven To Lacerate"
                     From album: "Arrogance Of Supreme Power"
                     Copyright Lascerated Enemy Records 2004 
                     Transcribed by: Yura Kowalchuk
                     Contact:[yura_kowalchuk@mail.ru]
                             [yura@grindcore.net]
                    http://www.blood-scrapes.nm.ru
                    http://brutaltabs.musica.mustdie.ru

                            TABULATURE LEGEND:
                   " - tremolo             h - hammer on
                   ~ - vibrato             \ - slide down
                   p - pull off            / - slide down
                  tr - trill               ^ - pinch harmonics
                   = - sustained note      b - bend string
                p.m. - palm muting         t - tapping
                           <> - natural harmonic



TUNING: C [C, F, Bb, eb, g, c]

[Riff 1 (x2)]
||-----------------------------------|------------------------------------|-
||o----------------------------------|------------------------------------|-
||-----------------------------------|-----------6-6-6--------------------|-
||--3-3-3-------333333---------------|-----------------8-8-8-77776666-----|-
||o-------2-2-2-------222222---------|-------------------------------5555-|-
||---------------------------1-1-1-4-|-4-4-7-7-7--------------------------|-
    . . . . . . ............ . . . .   . . . . . . . . . . . ............


-|--------------------------------------------------||
-|-------------------------------------------------o||
-|--------------------------------------------------||
-|-3-3-3-------33333-------------------5-5-5-5-5-5--||
-|-------2-2-2------222222444444444444-------------o||
-|--------------------------------------------------||
   . . . . . . ....................... . . . . . .

[Riff 2 (x3)
||--------------------------------------------|-
||o-------------------------------------------|-
||--------------------------------------------|-
||--8---7---66665555-6-5-----3333-------------|-
||o---4---4----------4-3-6-5-----22226666-----|-
||-----------------------4-3-------------5555-|-
    . . . . ........ . . . . ................

-|--------------------------------------------||
-|-------------------------------------------o||
-|--------------------------------------------||
-|-8---7---66665555---------33332222----------||
-|---4---4--------------6--------------2-3-2-o||
-|------------------4-3---5----------0--------||
   . . . . ........ . . . . ........ . . . .

[Outro]
|------------------------------------------------------------|
|------------------------------------------------------------|
|------------------------------------------------------------|
|------------------------------------------------------------|
|----------2-3-2-3------------4-----5h6--------------2-3-2-4-|
|-44443333-0-1-0-1-44443333-3---5-6-----8p7-44443333-0-1-0-2-|
| ........ . . . . ........ . . . .         ........ . . . . |
|------------------------------------------------------------|
|------------------------------------------------------------|
|------------------------------------------------------------|
|------------------------------------------------------------|
|-----------------------------4-----5h6--------------2-3-2-4-|
|---------------------------3---5-6-----8p7-44443333-0-1-0-2-|
                            . . . .         ........ . . . .

[Riff 3 (x2)]
||----------------------------|-
||o---------------------------|-
||----------------------------|-
||----------------------------|-
||o----------22-3-1-2-4-3-2-1-|-
||--44443333-22-3-1-2-4-3-2-1-|-
    ........ .. . . . . . . .

-|-------------------------------------------------------------||
-|------------------------------------------------------------o||
-|-------------------------------------------------------------||
-|-------------------------------------------------------------||
-|----------2-3-2-3------------4-----5h6--------------2-3-2-4-o||
-|-44443333-0-1-0-1-44443333-3---5-6-----8p7-44443333-0-1-0-2--||
   ........ . . . . ........ . . . .         ........ . . . .

                            [Riff 4 (x2)]
|---------------------------||----------------------------------|-
|---------------------------||o---------------------------------|-
|---------------------------||------------7---------------------|-
|---------------------------||--------9-5---8-5-------9-5-------|-
|----------22-3-1-2-4-3-2-1-||o-8-7-------------8-7-------7-8-7-|-
|-44443333-22-3-1-2-4-3-2-1-||------6---------------6-----5-6-5-|-
  ........ .. . . . . . . .     . . . . . . . . . . . . . . . .

|--------------------------------------------||
|-------------------------------------------o||
|------------------7-----8-7---6-5----5-4----||
|-----^--------9-5---8-5-----8------7-----5--||
|-8-6-5~-8-7--------------------------------o||
|-6-4--------6-------------------------------||
  . .    . . . . . . . .

[Riff 5 (x4)]
||--------------------------|--------------------------------------||
||o-------------------------|-------------------------------------o||
||--------------------------|--------------------------------------||
||------4-----6-------3-4-5-|-----4-----6---6----------------------||
||o-6-5-2-6-5-4-6-5-4-1-2-3-|-6-5-2-6-5-4-7---7-7-6-5-2-2-6-5-6-4-o||
||--4-3---4-3---4-3-2-------|-4-3---4-3---------5-4-3-0-0-4-3-4-2--||
    . . . . . . . . . . . .   . . . . . . . . . . . . . . . . . .

                                 [Riff 6 (x2)]
|--------------------------------||----------------------------------|-
|--------------------------------||o---------------------------------|-
|--------------------------------||----------------------------------|-
|-5/7-5/7-5/7-7------------------||----------------------------------|-
|-------------7--7-6-7-6-7-6-7-6-||o-666-666-666-666-888-888-888-888-|-
|----------------8-7-8-7-8-7-8-7-||--444-444-444-444-666-666-666-666-|-
|                . . . . . . . . |   ... ... ... ... ... ... ... ... |
|--------------------------------||----------------------------------|-
|--------------------------------||o---------------------------------|-
|--------------------------------||----------------------------------|-
|-7/9-7/9-7/9-9------------------||----------------------------------|-
|-------------9--7-6-7-6-7-6-7-6-||o-666-666-666-666-888-888-888-888-|-
|----------------8-7-8-7-8-7-8-7-||--444-444-444-444-666-666-666-666-|-
                 . . . . . . . .     ... ... ... ... ... ... ... ...

-|----------------------------------||
-|---------------------------------o||
-|----------------------------------||
-|----------------------------------||
-|-666-666-666-666-444-444-444-444-o||
-|-444-444-444-444-222-222-222-222--||
 | ... ... ... ... ... ... ... ...   |
-|----------------------------------||
-|---------------------------------o||
-|----------------------------------||
-|----------------------------------||
-|-666-666-666-666-444-444-444-444-o||
-|-444-444-444-444-222-222-222-222--||
   ... ... ... ... ... ... ... ...

[Outro 2]
|-------------------------------------------------------------------|
|-------------------------------------------------------------------|
|-------------------------------------------------------------------|
|-------------------------------------------------------------------|
|-3-4-5-4-5-6-55-5-3-4-5-4-5-6-55-5-3-4-5-4-5-6-55-5-3-4-5-4--------|
|-1-2-3-2-3-4-33-3-1-2-3-2-3-4-33-3-1-2-3-2-3-4-33-3-1-2-3-2--------|
| . . . . . . .. . . . . . . . .. . . . . . . . .. . . . . .        |
|-------------------------------------------------------------------|
|-------------------------------------------------------------------|
|-------------------------------------------------------------------|
|-------------------------------------------------------------------|
|-------------------------------------------------------------------|
|-------------------------------------------------------------------|

[Riff 7 (x4)]
||------------------------------------|-----------------------------------||
||o-----------------------------------|----------------------------------o||
||------------------------------------|-----------------------------------||
||------------------------------------|-----------------------------------||
||o-3-4-5-4-5-6-55-5-3-4-5-4-5-6-55-5-|-3-4-5-4-5-6-55-5-3-4-5-4-3-4-5-4-o||
||--1-2-3-2-3-4-33-3-1-2-3-2-3-4-33-3-|-1-2-3-2-3-4-33-3-1-2-3-2-1-2-3-2--||
    . . . . . . .. . . . . . . . .. .   . . . . . . .. . . . . . . . . .

[PAUSE] [RIFF 4 (x2)]

                    [Riff 8 (x4)]
|-----------------||--------------------------|-
|-----------------||o-------------------------|-
|-----------------||------------------------5-|-
|-----------2-----||----5---5-4-2---5---5-4---|-
|---4---------4-3-||o-6---6-------6---6-------|-
|-3---5-6-3-------||--------------------------|-
| . . . . . . . . |   . . . . . . . . . . . . |
|-----------------||--------------------------|-
|-----------------||o-------------------------|-
|-----------------||------------------------5-|-
|-----------------||----5---5-4-2---5---5-4---|-
|-----------------||o-6---6-------6---6-------|-
|-----------------||--------------------------|-
                      . . . . . . . . . . . .

-|-[ending 1,2,3]---------------||     -[ending 4]----------------|
-|---------------------------6-o||     ---------------------------|
-|-----------------7-8-----5----||     -----------------7-8-----5-|
-|---5---5-4-2-5-6-----3-6------||     ---5---5-4-2-5-6-----3-6---|
-|-6---6-----------------------o||     -6---6---------------------|
-|------------------------------||     ---------------------------|
 | . . . . . . . . . . . . . .   |      . . . . . . . . . . . . . |
-|-[ending 1,2,3]---------------||     -[ending 4]----------------|
-|---------------------------6-o||     ---------------------------|
-|-----------------7-8-----5----||     -----------------7-8-----5-|
-|---5---5-4-2-5-6-----3-6------||     ---5---5-4-2-5-6-----3-6---|
-|-6---6-----------------------o||     -6---6---------------------|
-|------------------------------||     ---------------------------|
   . . . . . . . . . . . . . .          . . . . . . . . . . . . .

END OF SONG

  Visit MetalTabs.com for more metal tablature

bottom separator

Contact Us | Privacy Policy | Disclaimer | Legal Notice
Copyright © 2001-2014 MetalTabs.com. All Rights Reserved.