top separator

Home

Forum

What's New

Submit a Tab

FAQ

Links

Contact Us

Link to Us

MuSpy.com

MetalTabs.com logo

Bands

0-9

A

B

C

D

E

F

G

H

I

J

K

L

M

N

O

P

Q

R

S

T

U

V

W

X

Y

Z

Search

What

Where
 

Godless Truth - "Mission: Fuck You" Guitar Tab

Plain Text Version
More Godless Truth Tabs

Hits: 2557
Updated: 2005-08-17 15:57:41

 

By:

Yura

sendpm.gif

email.gif

Important note
This tab is available online because we obtained explicit permission from Godless Truth or their label.


#----------------------------------PLEASE NOTE---------------------------------#
#This file is the author's own work and represents their interpretation of the #
#song. You may only use this file for private study, scholarship, or research. #
#Unless specified otherwise, this is NOT an official tab from the band members.#
#------------------------------------------------------------------------------#

  Visit MetalTabs.com for more metal tablature
  
--- GODLESS TRUTH  ---
                            "Mission: Fuck You"
                     From album: "Arrogance Of Supreme Power"
                     Copyright Lascerated Enemy Records 2004 
                     Transcribed by: Yura Kowalchuk
                     Contact:[yura_kowalchuk@mail.ru]
                             [yura@grindcore.net]
                    http://www.blood-scrapes.nm.ru
                    http://brutaltabs.musica.mustdie.ru

                            TABULATURE LEGEND:
                   " - tremolo             h - hammer on
                   ~ - vibrato             \ - slide down
                   p - pull off            / - slide down
                  tr - trill               ^ - pinch harmonics
                   = - sustained note      b - bend string
                p.m. - palm muting         t - tapping
                           <> - natural harmonic



TUNING: C [C, F, Bb, eb, g, c]

[Riff 1a (x2)]
||----------------------------|---------------------------------------[x2]-|-||
||o---------------------------|--------------------------------------------|o||
||----------------------------|----------------------------------5-1h4p1h4-|-||
||------------6------------^--|-1233------3455-2344-1233------345----------|-||
||o-7-3--4--5-4--7-3--4--5-4~-|------2344----------------2344--------------|o||
||--5-1--2--3----5-1--2--3----|--------------------------------------------|-||
|                             | .... .... .... .... .... .... ....         |
||----------------------------|---------------------------------------[x2]-|-||
||o---------------------------|-----------3455-----------------------------|o||
||----------------------------|-1233-----------2344-1233------3455-1h4p1h4-|-||
||------------6---------------|------2344----------------2344--------------|-||
||o-7-3--4--5-4--7-3--4--5-4~-|--------------------------------------------|o||
||--5-1--2--3----5-1--2--3----|--------------------------------------------|-||
                                .... .... .... .... .... .... ....

[Outro 1]
|---------------------------|
|---------------------------|
|---------------------------|
|-----------6------------^--|
|-7-3--4--5-4--7-3--4--5-4~-|
|-5-1--2--3----5-1--2--3----|

[Riff 2 (x3)]
||----------------------------------|----------------------------||
||o---------------------------------|---------------------------o||
||----------------------------------|----------------------------||
||----------------------------------|------------6---------------||
||o-2-2-2-2-2-2-2-2-2-2-2-2-2-2-2-2-|-7--3--4--5-4--7--3--4--4~-o||
||--0-0-0-0-0-0-0-0-0-0-0-0-0-0-0-0-|-5--1--2--3----5--1--2------||
    . . . . . . . . . . . . . . . .

[Outro 2]
|------------------------|----------11-14-11----------------13-16-13-------|
|------------------------|-------12----------12----------14----------14----|
|------------------------|----11----------------11----13----------------13-|
|------------------------|-12----------------------14----------------------|
|-2-2--2--2--2--2--2--2--|-------------------------------------------------|
|-0-0--0--0--0--0--0--0--|-------------------------------------------------|
  . .  .  .  .  .  .  .

[Riff 3 (x6)]
||--------------------------------------------------------------------||
||o------------------------------------------------------------------o||
||---------------------------4---------------------------------5-4-7--||
||------4--------------------2-5-4------4----------------------3-2-5--||
||o-6-5-2--4-5-3-6-5--2-3-4----3-2--6-5-2--4-5-3-6-5--2-3-4--2-3-2-5-o||
||--4-3----2-3-1-4-3--0-1-2---------4-3----2-3-1-4-3--0-1-2--0--------||
    . .    . . . . .  . . .  . . .  . .    . . . . .  . . .  . . . .

[Riff 4 (x4)]
||---------------------------------------|-
||o--------------------------------------|-
||---------------------------------------|-
||---------------------------------------|-
||o-2--4--3--6--2-2-4--3--6--2--4--3--6--|-
||--0--2--1--4--0-0-2--1--4--0--2--1--4--|-
    .  .  .  .  . . .  .  .  .  .  .  .

-|----------14-17-14-------------16-19-16-----------||
-|-------16----------16-------17----------17-------o||
-|----15----------------15-16----------------16-----||
-|-16-------------------------------------------16--||
-|-------------------------------------------------o||
-|--------------------------------------------------||

[Outro 3 (x3)]
|----------14-17-14-------------16-19-16----------|
|-------16----------16-------17----------17-------|
|----15----------------15-16----------------16----|
|-16-------------------------------------------16-|
|-------------------------------------------------|
|-------------------------------------------------|

[Riff 5 (x4)] /very quick picking/
||-----------------------------|-----------------------------||
||o----------------------------|----------------------------o||
||-----------------------------|--------------------4-4-4-4--||
||-----------------------------|-----------------------------||
||o-5\4-----^--2-3-4-4-1-------|-5\4-----^--2-3-4-4---------o||
||--3\2-0-0-3~-----------5-4-3-|-3\2-0-0-3~------------------||
        . .    . . . . . . . .       . .    . . . . . . . .

[Riff 6 (x2)]
||--------------------------------------------------|-
||o-------------------------------------------------|-
||--------------------------------------------------|-
||------------5-----------------------5-------------|-
||o-4--5------3--6--5--4----4--5------3--6--5----3--|-
||--2--3--0-0----4--3--2----2--3--0-0----4--3--0-1--|-
          . .                     . .

-|------------------------------------------------||
-|-----------------------------------------------o||
-|------------------------------------------------||
-|-----------5-----------------------5--5--4------||
-|-4--5------3--6--5--4----4--5------3--3--2-7-6-o||
-|-2--3--0-0----4--3--2----2--3--0-0---------5-4--||
         . .                     . .

[Riff 7a]
||---------------------------[x2]-||-----------------|
||o------------------------------o||-----------------|
||--------------------------------||-----------------|
||------------------------6-------||-------3-22-5----|
||o-2----22-3----2-22---2-4-5-4--o||--2----3-22-3----|
||--0----00-1----0-00---0---3-2---||--0--------------|
    .    .. .    . ..   . . .         .    . .. .

[Riff 8 (x4)]
||-----------------------------------||
||o---------------------------------o||
||--5---------------5----------------||
||------3-6-------------3-6-----3----||
||o---4-----4---4-----4-----4-----4-o||
||------------5---5-----------5------||

[Riff 9 (x2)]
||----------------------------------|--------------------------------||
||o---------------------------------|---------------------6------6--o||
||--5---------------5---------------|-5-------------------4------4---||
||------3-6-------------3-6-----3---|-----3-6-------------3------3---||
||o---4-----4---4-----4-----4-----4-|---4-----4---4---0-0----0-0----o||
||------------5---5-----------5-----|-----------5---5----------------||
      . . . . . . .   . . . . . . .     . . . . . . . . .    . .

[Outro 4]
|---------------------|
|-----------6------6--|
|-----------4------4--|
|-----------3------3--|
|-------0-0----0-0----|
|---------------------|
        . .    . .

[Outro 5]
|-------------------------------------------|-
|------------------^------------------------|-
|------------------5~-----------------------|-
|-4-7------------------4-7------------------|-
|-2-5-5-7-5--4--5------2-5-5-7-5--4--5--^---|-
|-----3-5-3--2--3----------3-5-3--2--3--5~--|-
| . . . . .  .  .      . . . . .  .  .      |
|-------------------------------------------|-
|-------------------------------------------|-
|-------------------------------------------|-
|-------------------------------------------|-
|-------------------------------------------|-
|-------------------------------------------|-

-|------------------------------------|
-|------------------^-----------------|
-|------------------5~----------------|
-|-4-7--------------------------------|
-|-2-5-5-7-5--4--5------5=====-6=====-|
-|-----3-5-3--2--3------3=====-4=====-|
 | . . . . .  .  .                    |
-|------------------------------------|
-|------------------------------------|
-|------------------------------------|
-|------------------------------------|
-|----------------------5=====-6=====-|
-|----------------------3=====-4=====-|

[Riff 10 (x3)]
||--------------------------------------------|-
||o------------------^------------------------|-
||-------------------5~-----------------------|-
||--4-7------------------4-7------------------|-
||o-2-5-5-7-5--4--5------2-5-5-7-5--4--5--^---|-
||------3-5-3--2--3----------3-5-3--2--3--5~--|-
    . . . . .  .  .      . . . . .  .  .


-|-------------------------------------||
-|------------------^-----------------o||
-|------------------5~-----------------||
-|-4-7---------------------------------||
-|-2-5-5-7-5--4--5------5=====-6=====-o||
-|-----3-5-3--2--3------3=====-4=====--||
   . . . . .  .  .

[Riff 11 (x5)] /under solo/
||--------------------------------------------------------||
||o------------------------------------------------------o||
||--------------------------------------------------------||
||--5------------------------------5----------------------||
||o-3----5-4-6===================--3----4-3-5======-4===-o||
||--3----3-2-4===================--3----2-1-3======-2===--||

[Outro 6]
|----------------------------------|----------------------------------|
|----------------------------------|----------------------------------|
|----------------------------------|----------------------------------|
|----------------------------------|----------------------------------|
|-2-5-4-3-5-4-5-7-2-5-4-3-5-4------|-------------------------5-4------|
|-0-3-2-1-3-2-3-5-0-3-2-1-3-2-5555-|-------------------------3-2-5555-|
| . . . . . . . . . . . . . .  ....|                         . . .... |
|----------------------------------|----------------------------------|
|----------------------------------|----------------------------------|
|----------------------------------|----------------------------------|
|----------------------------------|----------------------------------|
|-------------------------5-4------|-2-5-4-3-5-4-5-7-2-5-4-3-5-4------|
|-------------------------3-2-5555-|-0-3-2-1-3-2-3-5-0-3-2-1-3-2-5555-|
                          . . ....   . . . . . . . . . . . . . . ....

[Riff 12 (x6)]
||------------------------------------||
||o----------------------------------o||
||------------------------------------||
||------------------------------------||
||o-2-5-4-3-5-4-5-7-2-5-4-3-5-4------o||
||--0-3-2-1-3-2-3-5-0-3-2-1-3-2-5555--||
    . . . . . . . . . . . . . . ....

[Riff 1b (x2)]
||----------------------------------------------||
||o--------------------------------------------o||
||-----------------------------------5-1h4p1h4--||
||--1233------3455-2344-1233------345-----------||
||o------2344----------------2344--------------o||
||----------------------------------------------||
|   .... .... .... .... .... .... ....           |
||----------------------------------------------||
||o-----------3455-----------------------------o||
||--1233-----------2344-1233------3455-1h4p1h4--||
||-------2344----------------2344---------------||
||o--------------------------------------------o||
||----------------------------------------------||
   .... .... .... .... .... .... ....

[Outro 7]
|-----------------|
|-----------------|
|-----------------|
|-----------------|
|-2-3-4-4-1-------|
|-----------5-4-3-|
  . . . . . . . .

[RIFF 5 (x4)] [RIFF 6 (x2)]

[Ending]
||---------------------------[x2]-||-----------------|
||o------------------------------o||-----------------|
||--------------------------------||-----------------|
||------------------------6-------||-----------------|
||o-2----22-3----2-22---2-4-5-4--o||--2----3-33-2----|
||--0----00-1----0-00---0---3-2---||--0----1-11-0----|
    .    .. .    . ..   . . . .       .    . .. .

END OF SONG

  Visit MetalTabs.com for more metal tablature

bottom separator

Contact Us | Privacy Policy | Disclaimer | Legal Notice
Copyright © 2001-2014 MetalTabs.com. All Rights Reserved.