top separator

Home

Forum

What's New

Submit a Tab

FAQ

Links

Contact Us

Link to Us

MuSpy.com

MetalTabs.com logo

Bands

0-9

A

B

C

D

E

F

G

H

I

J

K

L

M

N

O

P

Q

R

S

T

U

V

W

X

Y

Z

Search

What

Where
 

Godless Truth - "Perceive The Mockery" Guitar Tab

Plain Text Version
More Godless Truth Tabs

Hits: 2657
Updated: 2005-08-17 15:57:25

 

By:

Yura

sendpm.gif

email.gif

Important note
This tab is available online because we obtained explicit permission from Godless Truth or their label.


#----------------------------------PLEASE NOTE---------------------------------#
#This file is the author's own work and represents their interpretation of the #
#song. You may only use this file for private study, scholarship, or research. #
#Unless specified otherwise, this is NOT an official tab from the band members.#
#------------------------------------------------------------------------------#

  Visit MetalTabs.com for more metal tablature
  
--- GODLESS TRUTH  ---
                           "Perceive The Mockery"
                     From album: "Arrogance Of Supreme Power"
                     Copyright Lascerated Enemy Records 2004 
                     Transcribed by: Yura Kowalchuk
                     Contact:[yura_kowalchuk@mail.ru]
                             [yura@grindcore.net]
                    http://www.blood-scrapes.nm.ru
                    http://brutaltabs.musica.mustdie.ru

                            TABULATURE LEGEND:
                   " - tremolo             h - hammer on
                   ~ - vibrato             \ - slide down
                   p - pull off            / - slide down
                  tr - trill               ^ - pinch harmonics
                   = - sustained note      b - bend string
                p.m. - palm muting         t - tapping
                           <> - natural harmonic



TUNING: C [C, F, Bb, eb, g, c]

[Riff 1 (x2)]
||----------------------------------|--------------------------------||
||o---------------------------------|-------------------------------o||
||----------5555--------------------|---------5555-------------------||
||--33332222----33332222---------4--|-33332222-----------------------||
||o----------------------6-5-6-5-2--|--------------6-5-6-5-66-5-6-5-o||
||-----------------------4-3-4-3-2--|--------------4-3-4-3-44-3-4-3--||
    .................... . . . .      ............ . . . . .. . . .

[Riff 2 (x2)]
||---------------------------------------------------------||
||o-------------------------------------------------------o||
||----------5555--------5555--------5555-------------------||
||--33332222----33332222----33332222-----------------------||
||o--------------------------------------6-5-6-5-66-5-6-5-o||
||---------------------------------------4-3-4-3-44-3-4-3--||
    .................................... . . . . .. . . .

[Outro]
|-----------------------------------------------------|
|-----------------------------------------------------|
|-----------------------------------------------------|
|-----------------------------------------------------|
|-6-5-6-5-66-5-6-5-6-5-6-5-66-5-6-5-6-5-6-5-----------|
|-4-3-4-3-44-3-4-3-4-3-4-3-44-3-4-3-4-3-4-3-----------|
  . . . . .. . . . . . . . .. . . . . . . .

[Riff 3 (x2)]
||-----------------------------------------------------------------|-
||o----------------------------------------------------------------|-
||---------------------------------------------------------4-----6-|-
||---------------------------------------------------------2-6-4-4-|-
||o-6-5-6-5-66-5-6-5-6-5-6-5-66-5-6-5-6-5-6-5-66-5-6-5-2-4---4-2---|-
||--4-3-4-3-44-3-4-3-4-3-4-3-44-3-4-3-4-3-4-3-44-3-4-3-0-2---------|-
    . . . . .. . . . . . . . .. . . . . . . . .. . . . . . . . . .

-|--------------------------------------------------------------------||
-|-------------------------------------------------------------------o||
-|----------------------------------------------------------------9---||
-|--------------------------------------------------------3/4\3-8-7---||
-|-6-5-6-5-66-5-6-5-6-5-6-5-66-5-6-5-6-5-6-5-66-5-6-5-2-3-1/2\1-6----o||
-|-4-3-4-3-44-3-4-3-4-3-4-3-44-3-4-3-4-3-4-3-44-3-4-3-0-1-1/2\1-6-----||
   . . . . .. . . . . . . . .. . . . . . . . .. . . . . .

[Riff 4 (x2)]
||--------------|--------------------[x4]-|-----------||
||o-------------|-------------------------|----------o||
||--------------|-------------------------|-----------||
||------8-9-----|-6-----------5-5-4-4-4-3-|-1-2-1-----||
||o-5-6-6-7-5-6-|-------5---3-6-6-5-5-5-4-|-2-3-2----o||
||--3-4-----3-4-|---3-4---4---------------|-----------||
    . . . . . .   . . . . . . . . . . . .   . .

[Outro 2]
|-------------------------|-------------------------|-
|-------------------------|-------------------------|-
|-------------------------|-----------------444-----|-
|-----8-9---------8-9-----|-333-333-333-444-----444-|-
|-5-6-6-7-5-6-5-6-6-7-5-6-|-111-111-111-222-----222-|-
|-3-4-----3-4-3-4-----3-4-|-------------------------|-
| . . . . . . . . . . . . | ... ... ... ... ... ... |
|-------------------------|-------------------------|-
|-------------------------|-------------------------|-
|-------------------------|-------------------------|-
|-----8-9---------8-9-----|-3-----------------------|-
|-5-6-6-7-5-6-5-6-6-7-5-6-|-1-----------------------|-
|-3-4-----3-4-3-4-----3-4-|-------------------------|-
  . . . . . . . . . . . .   .

-|-------------------------|-------------------------|-
-|-------------------------|-------------------------|-
-|-------------------------|-----------------444-----|-
-|-333-333-333-444-555-666-|-333-333-333-444-----444-|-
-|-111-111-111-222-333-444-|-111-111-111-222-----222-|-
-|-------------------------|-------------------------|-
 | ... ... ... ... ... ... | ... ... ... ... ... ... |
-|-------------------------|-------------------------|-
-|-------------------------|-------------------------|-
-|-------------------------|-------------------------|-
-|-------------4-------6---|-3-----------------------|-
-|-------------2-------4---|-1-----------/11\....----|-
-|-------------------------|-------------------------|-

-------------------|
-------------------|
-------------------|
----------3"-------|
-3"-2"-------2"----|
-------3"-------3"-|
                   |
-------------------|
-------------------|
-------------------|
----------3"-------|
-3"-2"-------2"----|
-------3"-------3"-|

[Riff 5]
|-------------------------|-------------------------|-
|-------------------------|-------------------------|-
|-----------------444-----|-------------------------|-
|-333-333-333-444-----444-|-333-333-333-444-555-666-|-
|-111-111-111-222-----222-|-111-111-111-222-333-444-|-
|-------------------------|-------------------------|-
  ... ... ... ... ... ...   ... ... ... ... ... ...

-|-------------------------|-------------------|-
-|-------------------------|-------------------|-
-|-----------------444-----|-------------------|-
-|-333-333-333-444-----444-|----------3"-------|-
-|-111-111-111-222-----222-|-3"-2"-------2"----|-
-|-------------------------|-------3"-------3"-|-
   ... ... ... ... ... ...

-|-------------------------|-------------------------|-
-|-------------------------|-------------------------|-
-|-----------------444-----|-------------------------|-
-|-333-333-333-444-----444-|-333-333-333-444-555-666-|-
-|-111-111-111-222-----222-|-111-111-111-222-333-444-|-
-|-------------------------|-------------------------|-
   ... ... ... ... ... ...   ... ... ... ... ... ...

-|-------------------------|------------------------------|
-|-------------------------|------------------------------|
-|-----------------444-----|------------------------------|
-|-333-333-333-444-----444-|-------33------------------33-|
-|-111-111-111-222-----222-|-332211--2"----------332211---|
-|-------------------------|------------3"-2"-1"----------|
   ... ... ... ... ... ...   ........            ........

-|-------------------------|-------------------------|-
-|-------------------------|-------------------------|-
-|-----------------444-----|-------------------------|-
-|-333-333-333-444-----444-|-333-333-333-444-555-666-|-
-|-111-111-111-222-----222-|-111-111-111-222-333-444-|-
-|-------------------------|-------------------------|-
   ... ... ... ... ... ...   ... ... ... ... ... ...

-|-------------------------|--------------[x4]-|
-|-------------------------|-------------------|
-|-----------------444-----|-------------------|
-|-333-333-333-444-----444-|----------3"-------|
-|-111-111-111-222-----222-|-3"-2"-------2"----|
-|-------------------------|-------3"-------3"-|
   ... ... ... ... ... ...

                     [Riff 6 (x4)]
|------------------||----------------------------------------|-
|------------------||o---------------------------------------|-
|------------------||----------------------------------------|-
|------------------||--------------------------5"...-3-3-2-2-|-
|-2---3---33---3-3-||o-5"-------3"...-5"-------------4-4-3-3-|-
|---0---0----0-----||----4"3"4"---------4"3"4"---------------|-
  . . . . .. . . .                                   . . . .

-------------------------------||
------------------------------o||
-------------------------------||
---------------------2------2--||
-5"-------3"...-22-1-2-22-1-2-o||
---4"3"4"-------22-1---22-1----||
                .. .   .. .

[Outro 3]
|-------------------------|--------------------|-
|-------------------------|--------------------|-
|-------------------------|--------------------|-
|-------------------------|--------------------|-
|-4-5-4-5/8\7-4-5-4-5/8\7-|-4-5-4-5/8\7-4-5-4--|-
|-2-3-2-3/6\5-2-3-2-3/6\5-|-2-3-2-3/6\5-2-3-2--|-
| . . .       . . .       | . . .       . .    |
|-------------------------|--------------------|-
|-------------------------|--------------------|-
|-------------------------|--------------------|-
|-------------------------|--------------------|-
|-------------------------|-------------4-5-4--|-
|-------------------------|-------------2-3-2--|-
                                        . .

-|-------------------------|------------------------|
-|-------------------------|------------------------|
-|-------------------------|------------------------|
-|-------------------------|------------------------|
-|-4-5-4-5/8\7-4-5-4-5/8\7-|-4-5-4-5/8\7-3-5-4-5-7--|
-|-2-3-2-3/6\5-2-3-2-3/6\5-|-2-3-2-3/6\5-1-3-2-3-5--|
 | . . .       . . .       | . . .       . . . .    |
-|-------------------------|------------------------|
-|-------------------------|------------------------|
-|-------------------------|------------------------|
-|-------------------------|------------------------|
-|-4-5-4-5/8\7-4-5-4-5/8\7-|-4-5-4-5/8\7-3-5-4-5-7--|
-|-2-3-2-3/6\5-2-3-2-3/6\5-|-2-3-2-3/6\5-1-3-2-3-5--|
   . . .       . . .         . . .       . . . .

[Riff 7a]
|-------------------------|--------------------|-
|-------------------------|--------------------|-
|-------------------------|--------------------|-
|-------------------------|--------------------|-
|-4-5-4-5/8\7-4-5-4-5/8\7-|-4-5-4-5/8\7-4-5-4--|-
|-2-3-2-3/6\5-2-3-2-3/6\5-|-2-3-2-3/6\5-2-3-2--|-
  . . .       . . .         . . .       . .

-|-------------------------|------------------------|
-|-------------------------|------------------------|
-|-------------------------|------------------------|
-|-------------------------|------------------------|
-|-4-5-4-5/8\7-4-5-4-5/8\7-|-4-5-4-5/8\7-3-5-4-5-7--|
-|-2-3-2-3/6\5-2-3-2-3/6\5-|-2-3-2-3/6\5-1-3-2-3-5--|
   . . .       . . .         . . .       . . . .

[Riff 7b]
|-------------------------|--------------------|-
|-------------------------|--------------------|-
|-------------------------|--------------------|-
|-------------------------|--------------------|-
|-4-5-4-5-8-7-4-5-4-5-8-7-|-4-5-4-5-8-7-4-5-4--|-
|-2-3-2-3-6-5-2-3-2-3-6-5-|-2-3-2-3-6-5-2-3-2--|-
  . . . . . . . . . . . .   . . . . . . . .

-|-------------------------|------------------------|
-|-------------------------|------------------------|
-|-------------------------|------------------------|
-|-------------------------|------------------------|
-|-4-5-4-5-8-7-4-5-4-5-8-7-|-4-5-4-5-8-7-3-5-4-5-7--|
-|-2-3-2-3-6-5-2-3-2-3-6-5-|-2-3-2-3-6-5-1-3-2-3-5--|
   . . . . . . . . . . . .   . . . . . . . . . .

[RIFF 7a]

[Riff 8 (x2)]
||-----------------------------------------------------------------------||
||o---------------------------------------------------------------------o||
||--------11-----------------8-9-----------------------------------------||
||----9-7-------6------------------9-------4-5-----7-6-----7-6-----------||
||o-8--------5--6---7-8----------8---11-10-4-5-3-4-5-4-6-5-5-4-6-5-6-5--o||
||-----------5------7-8-10-9-------------------3-4-----4-3-----4-3-4-3---||
|   . . . .  .  .   . . .  . . . . . .  .  . . . . . . . . . . . . . .    |
||-----------------------------------------------------------------------||
||o---------------------------------------------------------------------o||
||---------7-----------------5-6-----------------------------------------||
||----6-4-------66-----------------6-------4-5-----7-6-----7-6-----------||
||o-5--------55-66--7-8----------5---8--7--4-5-3-4-5-4-6-5-5-4-6-5-6-5--o||
||-----------55-----7-8-7--6-------------------3-4-----4-3-----4-3-4-3---||
    . . .  . .. ..  . . .  . . . . . .  .  . . . . . . . . . . . . . .

[Outro 4]
|-----------------------------------------|---------------------|-
|-----------------------------------------|---------------------|-
|-----------------------------------------|---------------------|-
|-7-6-----7-6---------7-6-----7-6---------|-7-6-----7-6---------|-
|-5-4-6-5-5-4-6-5-6-5-5-4-6-5-5-4-6-5-6-5-|-5-4-6-5-5-4-6-5-6-5-|-
|-----4-3-----4-3-4-3-----4-3-----4-3-4-3-|-----4-3-----4-3-4-3-|-
| . . . . . . . . . . . . . . . . . . . . | . . . . . . . . . . |
|-----------------------------------------|---------------------|-
|-----------------------------------------|---------------------|-
|-----------------------------------------|---------------------|-
|-7-6-----7-6-----------------------------|-7-6-----7-6---------|-
|-5-4-6-5-5-4-6-5-6-5-------------6-5-6-5-|-5-4-6-5-5-4-6-5-6-5-|-
|-----4-3-----4-3-4-3-------------4-3-4-3-|-----4-3-----4-3-4-3-|-
  . . . . . . . . . .             . . . .   . . . . . . . . . .

-|---------------------------|-----------------------|-
-|---------------------------|-----------------------|-
-|----------------------3344-|------------------3344-|-
-|---------5566--------------|---------5566----------|-
-|-6-5-6-5------6-5-6-5------|-6-5-6-5------6-5------|-
-|-4-3-4-3------4-3-4-3------|-4-3-4-3------4-3------|-
 | . . . . .... . . . . .... | . . . . .... . . .... |
-|---------------------------|-----------------------|-
-|---------------------------|-----------------------|-
-|---------------------------|-----------------------|-
-|---------------------------|-----------------------|-
-|-6-5-6-5------6-5-6-5------|-6-5-6-5------6-5-6-5--|-
-|-4-3-4-3------4-3-4-3------|-4-3-4-3------4-3-4-3--|-
   . . . .      . . . .        . . . .      . . . .

-|---------------------------|-----------------------|
-|---------------------------|-----------------------|
-|----------------------3344-|------------------3344-|
-|---------5566--------------|---------5566----------|
-|-6-5-6-5------6-5-6-5------|-6-5-6-5------6-5------|
-|-4-3-4-3------4-3-4-3------|-4-3-4-3------4-3------|
 | . . . . .... . . . . .... | . . . . .... . . .... |
-|---------------------------|-----------------------|
-|---------------------------|-----------------------|
-|---------------------------|-----------------------|
-|---------------------------|-----------------------|
-|-6-5-6-5------6-5-6-5------|-6-5-6-5------6-5------|
-|-4-3-4-3------4-3-4-3------|-4-3-4-3------4-3------|
   . . . .      . . . .        . . . .      . .

[Riff 9 (x2)]
||----------------------------|------------------------||
||o---------------------------|-----------------------o||
||-----------------------3344-|------------------3344--||
||----------5566--------------|---------5566-----------||
||o-6-5-6-5------6-5-6-5------|-6-5-6-5------6-5------o||
||--4-3-4-3------4-3-4-3------|-4-3-4-3------4-3-------||
|   . . . . .... . . . . .... | . . . . .... . . ....   |
||----------------------------|------------------------||
||o---------------------------|-----------------------o||
||----------4455---------7788-|---------4455-----7788--||
||----------------------------|------------------------||
||o-6-5-6-5------6-5-6-5------|-6-5-6-5------6-5------o||
||--4-3-4-3------4-3-4-3------|-4-3-4-3------4-3-------||
    . . . . .... . . . . ....   . . . . .... . . ....

[RIFF 3 (x2)]

[Ending]
|-------------------------|-------------------------|-
|-------------------------|-------------------------|-
|-----------------444-----|-------------------------|-
|-333-333-333-444-----444-|-333-333-333-444-555-666-|-
|-111-111-111-222-----222-|-111-111-111-222-333-444-|-
|-------------------------|-------------------------|-
  ... ... ... ... ... ...   ... ... ... ... ... ...

-|-------------------------|----------------|
-|-------------------------|----------------|
-|-----------------444-----|----------------|
-|-333-333-333-444-----444-|------2------2--|
-|-111-111-111-222-----222-|-22-1-2-22-1-2--|
-|-------------------------|-22-1---22-1----|
   ... ... ... ... ... ...   .. . . .. . .

END OF SONG

  Visit MetalTabs.com for more metal tablature

bottom separator

Contact Us | Privacy Policy | Disclaimer | Legal Notice
Copyright © 2001-2014 MetalTabs.com. All Rights Reserved.