top separator

Home

Forum

What's New

Submit a Tab

FAQ

Links

Contact Us

Link to Us

MuSpy.com

MetalTabs.com logo

Bands

0-9

A

B

C

D

E

F

G

H

I

J

K

L

M

N

O

P

Q

R

S

T

U

V

W

X

Y

Z

Search

What

Where
 

Cephalic Carnage - "Sleeprace" Guitar Tab

Plain Text Version
More Cephalic Carnage Tabs

Hits: 4538
Rated: 5.00 out of 5 (1 vote)
Updated: 2005-08-17 15:57:07

 

By:

Father Death

sendpm.gif

email.gif

Co-authored by:

Yura

sendpm.gif

email.gif

Important note
This tab is available online because we obtained explicit permission from Cephalic Carnage or their label.


#----------------------------------PLEASE NOTE---------------------------------#
#This file is the author's own work and represents their interpretation of the #
#song. You may only use this file for private study, scholarship, or research. #
#Unless specified otherwise, this is NOT an official tab from the band members.#
#------------------------------------------------------------------------------#

  Visit MetalTabs.com for more metal tablature
  
Band:  CEPHALIC CARNAGE
Album: Anomalies
Song:  Sleeprace

Transcribed by: Chris Humeniuk
Email: father_death_666@hotmail.com

Transcribed by: Yura Kowalchuk
Email: yura_kowalchuk@mail.ru

Tuning: 2.5 steps down (B)

Keys:
  b  - bend
  p  - pull off
 / \ - slide
  "  - tremelo
 ___ - palm mute
  h  - hammer on


INTRO:
(Gtr 1)
|--------------------------------|     |-----------------------------|
|--------------------------------|     |-----------------------------|
|--------------------------------|     |-----------------------------|
|--------------------------------|     |----------------------5-3-5--|
|-----------1---------------1----|     |-----------1----------5-1-5--|
|-0--1bp0-3---3-0--0-1bp0-3---3--| 3x  |-0--1bp0-3---3-0------3---3--|

(Gtr 2)
|--------------------------------|     |-----------------------------|
|-5-5----------------------------|     |-----------------------------|
|-4-4----------------------------|     |-----------------------------|
|--------------------------------|     |----------------------5-3-5--|
|--------------------------------|     |----------------------5-1-5--|
|--------------------------------|     |----------------------3---3--|


RIFF A:

|------------------------------|     |----------------|
|------------------------------|     |----------------|
|------------------------------|     |----------------|
|-2--3\2-5-3-5-2--2-3\2-5-3-5--|     |-2--3\2-5-3-5-2-|
|-2--3\2-5-1-5-2--2-3\2-5-1-5--|     |-2--3\2-5-1-5-2-|
|-0--1p0-3---3-0--0-1p0-3---3--| 3x  |-0--1p0-3---3-0-|


RIFF B:

|----------------------|
|----------------------|
|----------------------|
|----------------------|
|--------------5\4-5/8-|
|-0"-----------3\2-3/6-| 4x


RIFF Ca:
(Gtr 1)
|---------------------------------| |----------------------------------|
|---------------------------------| |------------11--------------------|
|---------------------------------| |-9~-10p9-12----12-9~-9-10\--------|
|-----------------------------7---| |---------------------------5-8-5--|
|-2--5--3--2-1h2p1...-------7---6-| |---------------------------5-8-5--|
|-0--3--1--0-----------0--5-------| |---------------------------3-6-3--| 2x
     _______

(Gtr 2)
|----------------------------------| |-------------------------------|
|-----------------------------10---| |-------------------------------|
|---------------------------9----8-| |-------------------------------|
|-------------------------7--------| |-----------8------------5-8-5--|
|-2--5--3--2-1h2p1...--------------| |-7~-8p7-10---10-7~-7-8\-5-8-5--|
|-0--3--1--0-----------0-----------| |------------------------3-6-3--| 2x
     _______              _


RIFF D:
(Gtr 1)
|-----------------------------------------------------------
|------------------------------------------------------6----
|-------------------------3--------------------------7---7~-
|-2--3\2-5-3-5-2--2-3\2-5---5~-2--3\2-5-3-5-2--2-3\2--------
|-2--3\2-5-1-5-2--2-3\2--------2--3\2-5-1-5-2--2-3\2--------
|-0--1p0-3---3-0--0-1p0--------0--1p0-3---3-0--0-1p0--------

(Gtr 2)
|-----------------------------------------------------------
|-------------------------6---------------------------------
|-----------------------7---7~-------------------------6----
|-2--3\2-5-3-5-2--2-3\2--------2--3\2-5-3-5-2--2-3\2-8---8~-
|-2--3\2-5-1-5-2--2-3\2--------2--3\2-5-1-5-2--2-3\2--------
|-0--1p0-3---3-0--0-1p0--------0--1p0-3---3-0--0-1p0--------

(Gtr 1)
 -----------------------------------------------------------
 ------------------------------------------------------6----
 -------------------------3--------------------------7---7~-
 -2--3\2-5-3-5-2--2-3\2-5---5~-2--3\2-5-3-5-2--2-3\2--------
 -2--3\2-5-1-5-2--2-3\2--------2--3\2-5-1-5-2--2-3\2--------
 -0--1p0-3---3-0--0-1p0--------0--1p0-3---3-0--0-1p0--------

(Gtr 2)
 -----------------------------------------------------------
 -------------------------4---------------------------------
 -----------------------5---5~-------------------------3----
 -2--3\2-5-3-5-2--2-3\2--------2--3\2-5-3-5-2--2-3\2-5---5~-
 -2--3\2-5-1-5-2--2-3\2--------2--3\2-5-1-5-2--2-3\2--------
 -0--1p0-3---3-0--0-1p0--------0--1p0-3---3-0--0-1p0--------

(Gtr 1)
 ------------------------------|
 ------------------------------|
 -------------------------3----|
 -2--3\2-5-3-5-2--2-3\2-5---5~-|
 -2--3\2-5-1-5-2--2-3\2--------|
 -0--1p0-3---3-0--0-1p0--------|

(Gtr 2)
 ---------------------------------|
 --------------------------11-----|
 -----------------------12----12~-|
 -2--3\2-5-3-5-2--2-3\2-----------|
 -2--3\2-5-1-5-2--2-3\2-----------|
 -0--1p0-3---3-0--0-1p0-----------|


FILL:
(Gtr 1)
|-------------------------------------------------------|
|--------------------------11---------------------------|
|-----------------------12----12~-----------------------|
|---------------------------------2--3\2-5-3-5-2--2-3\2-|
|----------1----------------------2--3\2-5-1-5-2--2-3\2-|
|-0--1p0-3---3-0--0-1p0-----------0--1p0-3---3-0--0-1p0-|

(Gtr 2)
|-----------------------------------------------------|
|-----------------------------------------------------|
|--------------------------3--------------------------|
|-----------8------------5---5~-2--3\2-5-3-5-2--2-3\2-|
|-7~-8p7-10---10-7~-7-8\--------2--3\2-5-1-5-2--2-3\2-|
|-------------------------------0--1p0-3---3-0--0-1p0-|


RIFF Cb:

|----------------------------------------------------------------
|----------------------------------------------------------------
|----------------------------------------------------------------
|-------------------------3--6\5-----------------------------1-0-
|-2--5--3--2-1h2p1...-----3--6\5-2--5--4--3-1h2p1...-----4-3-----
|-0--3--1--0-----------0--1--4\3-0--3--2--1----------------------
     _______                        _______

 ------------------------------------------------------------|
 ------------------------------------------------------------|
 ------------------------------------------------------------|
 -------------------------3--6\5----4--7\4-7-9--9-9-9-7-8-9--|
 -2--5--3--2-1h2p1...-----3--6\5-2--2--5\2-5-7--7-7-9-5-6-7--|
 -0--3--1--0-----------0--1--4\3-0------------------7--------|
     _______


SOLO 1:

|-------------------------------^----12----------------------
|-------------------------------7\5-----12-10---------10-12--
|-9-----7-9-11b~~-9---9-9p7---7---------------12-9-12--------
|---7/9---------------------9--------------------------------
|------------------------------------------------------------
|------------------------------------------------------------
                                     \_________x2__________/

 -12-------12/-19----------12--------------------------------
 ----12-10--------17----17----12-10\-------------------------
 --------------------16--------------------------------------
 ------------------------------------------------------------
 ------------------------------------------------------------
 ------------------------------------------------------------

 ------------10---------12~~--12-12--------------------------
 -11~~b12-11---12-11-12--------------8--12-11-8-10------8h10-
 --------------------------------------------------9h12------
 ------------------------------------------------------------
 ------------------------------------------------------------
 ------------------------------------------------------------

 ---12-------------------------------------------------------|
 ------12bp11--------------12~~--10-12\10~-------------------|
 -9-----------9h11-8h9-8h9-9~~~------------8h9-8h9-8h9~~-----|
 ------------------------------------------------------------|
 ------------------------------------------------------------|
 ------------------------------------------------------------|

SOLO 2:

|-12v~~~-12v~~~-----17h20-17---------------------------------
|\____x3________/------------19-17-15-------16v~~-16v~~------
|-------------------------------------16-18------------------
|------------------------------------------------------------
|------------------------------------------------------------
|------------------------------------------------------------

 -------------------------------------11p10------------------
 -13~~--------------------------10h13-------13p10------------
 ------12-9/12\9~~~--9~-9~-9h12------------------------------
 ------------------------------------------------------------
 ------------------------------------------------------------
 ------------------------------------------------------------

 -12h15p12-----------------12h15p12----12h15-12h15-12h15p12----------------
 ----------15-12p10----10-----------15----------------------15-12p10----10-
 -------------------12-----------------------------------------------12----
 --------------------------------------------------------------------------
 --------------------------------------------------------------------------
 --------------------------------------------------------------------------
  \___x2_________________/

 -{16t18}-{17t19}-{18t20}/\--17-18-17-17v~~~-17v~~~--\10--12~~\10~~------|
 ---------------------------------------------------------15b~-----------|
 ------------------------------------------------------------------------|
 ------------------------------------------------------------------------|
 ------------------------------------------------------------------------|
 ------------------------------------------------------------------------|
  \_pick tapping bar____/


UNDER SOLOS:

|-----------------------------------------------------------
|-----------------------------------------------------------
|-----------------------------------------------------------
|----9--12\9-9-9--9-9--8-7-5-4----9--12\9-9-9--9-9--4-5-7-8-
|-2--7--10\7-7-7--7-7--8-7-5-4-2--7--10\7-7-7--7-7--4-5-7-8-
|-0--------------------6-5-3-2-0--------------------2-3-5-6-

 --------------------------------------------------------------|
 --------------------------------------------------------------|
 --------------------------------------------------------------|
 ----9--12\9-9-9--9-9--8-7-5-4----9--12\9-12-14--14--14\12-12--|
 -2--7--10\7-7-7--7-7--8-7-5-4-2--7--10\7-10-12--12--12\10-10--|
 -0--------------------6-5-3-2-0-------------------------------|


AFTER SOLO:
(Gtr 1)
|-----------------------------------------------------------
|-----------------------------------------------------------
|-----------------------------------------------------------
|----9--12\9-9-9--9-9--8-7-5-4----9--12\9-9-9--9-9--4-5-7-8-
|-2--7--10\7-7-7--7-7--8-7-5-4-2--7--10\7-7-7--7-7--4-5-7-8-
|-0--------------------6-5-3-2-0--------------------2-3-5-6-

 ------------------------------------------------------------|
 ------------------------------------------------------------|
 ------------------------------------------------------------|
 ----9--12\9-9-9--9-9--8-7-5-4----9--12\9-12-14--------------|
 -2--7--10\7-7-7--7-7--8-7-5-4-2--7--10\7-10-12--------7-6-8-|
 -0--------------------6-5-3-2-0---------------------0-5-4-6-|
                                                     _____

(Gtr 2)
|-12--12--15p12-12-12--12-12--18-17-15-14-
|-----------------------------------------
|-----------------------------------------
|-----------------------------------------
|-----------------------------------------
|-----------------------------------------

 -12--12--15p12-12-12--12-12--14-15-17-18-
 -----------------------------------------
 -----------------------------------------
 -----------------------------------------
 -----------------------------------------
 -----------------------------------------

 -12--12--15p12-12-12--12-12--18-17-15-14-
 -----------------------------------------
 -----------------------------------------
 -----------------------------------------
 -----------------------------------------
 -----------------------------------------

 -12--12--15p12-15-17~----\---------------|
 -----------------------------------------|
 -----------------------------------------|
 -----------------------------------------|
 -----------------------------------------|
 -----------------------------------------|


OUTRO:

|--------------------------------------------------|
|--------------------------------------------------|
|--------------------------------------------------|
|----------------------------------------8\7---7\5-|
|----------------------------------------6\5---5\3-|
|-0"-5"-4"-6"-0"-5"-4"-6"-0"-5"-4"-6"--0-6\5-0-----| 2x
                                       _     _

|---------------------------------------------------------------|
|---------------------------------------------------------------|
|---------------------------------------------------------------|
|--------------------------------------8-7-6-7-6-5-6-5-3------2-|
|--------------------------------------6-5-6-5-4-3-6-5-3------2-|
|-0"-5"-4"-6"-0"-5"-4"-6"-0"-5"-4"-6"------4-------4-3-1------0-|

  Visit MetalTabs.com for more metal tablature

bottom separator

Contact Us | Privacy Policy | Disclaimer | Legal Notice
Copyright © 2001-2014 MetalTabs.com. All Rights Reserved.