top separator

Home

Forum

What's New

Submit a Tab

FAQ

Links

Contact Us

Link to Us

MetalTabs.com logo

Bands

0-9

A

B

C

D

E

F

G

H

I

J

K

L

M

N

O

P

Q

R

S

T

U

V

W

X

Y

Z

Search

What

Where
 

Nattefrost - "Mass Destruction" Guitar Tab

Plain Text Version
More Nattefrost Tabs

Hits: 3578
Rated: 5.00 out of 5 (3 votes)
Updated: 2005-08-17 15:54:47

 

By:

sendpm.gif

email.gif

Important note
This tab is available online because we obtained explicit permission from Nattefrost or their label.


#----------------------------------PLEASE NOTE---------------------------------#
#This file is the author's own work and represents their interpretation of the #
#song. You may only use this file for private study, scholarship, or research. #
#Unless specified otherwise, this is NOT an official tab from the band members.#
#------------------------------------------------------------------------------#

  Visit MetalTabs.com for more metal tablature
  
Band:  Nattefrost
Album: Blood & Vomit
Song:  Mass Destruction

Copyright (c)  Season of Mist 2004
Version 1.0 - 7/22/05

Transcribed By: Konkeror
Email:  Jackrippinghand@yahoo.com



Riff #1.
-----------------------------------------------------------------------------
-----------------------------------------------------------------------------
-----------------------------------------------------------------------------
---------------------------------3-3-3---------------------------------------
-6-6-6-6-6-6-6-6-6-6-6---5-5-5---1-1-1---6-6-6-6-6-6-6-6-6-6-6-6--3-3-3-3-3--
-4-4-4-4-4-4-4-4-4-4-4---3-3-3-----------4-4-4-4-4-4-4-4-4-4-4-4--1-1-1-1-1--





Riff #2
---------------------------------------------------------------------------
---------------------------------------------------------------------------
---------------------------------------------------------------------------
---------------------------------------------------------------------------
--5-5-5-5-5-5-5-5-5-5-5-----4-4-4------5-5-5-5-5-5-5-5-5-5-5-5-----4-4-4---
--3-3-3-3-3-3-3-3-3-3-3-----2-2-2------3-3-3-3-3-3-3-3-3-3-3-3-----2-2-2---




Riff #3.
----------------------------------------------------------------------------
----------------------------------------------------------------------------
----------------------------------------------------------------------------
----------------------------------------------------------------------------
--2-2-2-2-2-2-2-2-2-2-2-2----3-3-3------2-2-2-2-2-2-2-2-2-2-2-2----3-3-3----
--0-0-0-0-0-0-0-0-0-0-0-0----1-1-1------0-0-0-0-0-0-0-0-0-0-0-0----1-1-1----



Those are the basic Riff's to the song, the coordination isn't very hard either.
Just listen to the song and get the timing down.

-Konkeror

  Visit MetalTabs.com for more metal tablature

bottom separator

Contact Us | Privacy Policy | Disclaimer | Legal Notice
Copyright © 2001-2014 MetalTabs.com. All Rights Reserved.