top separator

Home

Forum

What's New

Submit a Tab

FAQ

Links

Contact Us

Link to Us

MuSpy.com

MetalTabs.com logo

Bands

0-9

A

B

C

D

E

F

G

H

I

J

K

L

M

N

O

P

Q

R

S

T

U

V

W

X

Y

Z

Search

What

Where
 

Decapitated - "Spheres of Madness" Guitar Tab

Plain Text Version
More Decapitated Tabs

Hits: 15534
Rated: 4.00 out of 5 (8 votes)
Updated: 2007-08-21 04:59:21

 

By:

Unholy Walter

sendpm.gif

email.gif

Important note
This tab is available online because we obtained explicit permission from Decapitated or their label.


#----------------------------------PLEASE NOTE---------------------------------#
#This file is the author's own work and represents their interpretation of the #
#song. You may only use this file for private study, scholarship, or research. #
#Unless specified otherwise, this is NOT an official tab from the band members.#
#------------------------------------------------------------------------------#

  Visit MetalTabs.com for more metal tablature
  
Band:  Decapitated
Album: Nihility
Song:  Spheres of Madness

Copyright (c)  Earache Records 2002
Version 1.0 - 22/07/05

Transcribed By: Unholy Walter
Email:          walker1130@gmail.com


.  - palm mute           /  - slide up to
\  - slide down to       ~  - vibrato
h  - hammer on           b  - Bend
p  - pull off            Suffixes for bend
t  - tap                 f  - full bend    h - half bend
ph - pinched harmonic    q  - quarter bend t - tap bend
*  - see comment         ^  - Hold bend    r release bend
x  - Stuccatto           ~  - vibrato bend
,  - slight palm mute    () - ghost note, sustained note
"  - tremolo note        <> - Trill

Tuning (D G C F A D)

Blaaah...


RIFF A

|---------------------------------------------------------------------|
|---------------------------------------------------------------------|  x3
|---------------------------------------------------------------------|
|---------------------------------------------------------------------|
|-----------------------------------------------------------2-2-2-2-2-|
|-000-000-0000---000000---000000---000-000-0000---000-000---0-0-0-0-0-|
  ... ... ....   ......   ......   ... ... ....   ... ...   . . . .


|---------------------------------------------------------------------|
|---------------------------------------------------------------------|
|---------------------------------------------------------------------|
|---------------------------------------------------------------------|
|-----------------------------------------------------------2-2-2-2-2-|
|-000-000-0000---000000---000000---000-000-0000---000-000---0-0-0-0-0-|
  ... ... ....   ......   ......   ... ... ....   ... ...   . . . . .


RIFF B

|-------------------------------------------------------------------|
|-------------------------------------------------------------------|
|-------------------------------------------------------------------|
|-----------------------8855----------------------------------------|
|-7744--------------7744----7744----7744----------------------------|
|--------0---5588---------------5588-------0---5588---000-000-00000-|
  ....   .   ....   ....................   .   ....   ... ... .....


 After 2 times, guitar 2 plays this
(NOTE: Those are ten's and eleven's)

|-----------------------------------------------------------------------------|
|-----------------------------------------------------------------------------|
|-----------------------------------------------------------------------------|
|---------------------------111188--------------------------------------------|
|-101077-------8855---101077------1010778855101077-------8855-----------------|
|----------0-----------------------------------------0----------000-000-00000-|
  . . ..   .   ....   . . ... . ... . ....... . ..   .   ....   ... ... .....


RIFF C

|---------|--------------------|-------------------------|
|(Guit.1)*|--------------------|-------------------------|
|---------|--------------------|-------------------------|
|---------|--------------------|-------------------------|
|-2---2\1-|------4/6\4/6-2-----|------4/6\4/6-2------2-2-|
|-0-0-3\2-|-0000-2/4\2/4-0--0"-|-0000-2/4\2/4-0--0--0-0-|
    .       ....            .    ....            .   . .

*Second |-----------|
 time   |-----------|
        |-----------|
        |-----------|
        |-2---2\1/2-|
        |-0-0-3\2/3-|
            .

|--------------------|---------------------------------------|
|--------------------|---------------------------------------|
|--------------------|---------------------------------------|
|--------------------|---------------------------------------|
|------4/6\4/6-2-----|------4/6\4/6-2------------4-7-4-------|
|-0000-2/4\2/4-0--0"-|-0000-2/4\2/4-0--00000-0-3-------6-3-3-|
  ....             .    ....           ..... . . . . . . . .


RIFF D

|------------------------------------------------|
|------------------------------------------------|
|------------------------------------------------|
|------------------------------------------------|
|------4/6\4/6-2---------------------------------|
|-0000-2/4\2/4-0-(whammy)------------------------|
  ....

|------------------------------------------------|
|------------------------------------------------|
|------------------------------------------------|
|------------------------------------------------|
|------4/6\4/6-2--2-2-2-2------------------------|
|-0000-2/4\2/4-0--0-0-0-0-0---------------------|
  ....            . . . . .

|------------------------------------------------|
|------------------------------------------------|
|------------------------------------------------|
|------------------------------------------------|
|------4/6\4/6-2---------------------------------|
|-0000-2/4\2/4-0-(whammy)------------------------|
  ....

|--------------------------------------------------|
|--------------------------------------------------|
|--------------------------------------------------|
|-----------------------------------5--------------|
|------4/6\4/6-2--2-2-2-----4-7-4-0-3--------------|
|-0000-2/4\2/4-0--0-0-0-0-3---------3--------------|
  ....            . . . . . . . . .


RIFF E

|-----------------------------------------------------------------------|
|-----------------------------------------------------------------------| x2
|-----------------------------------------------------------------------|
|-----------------------------------------------------------------------|
|------------4-7-4---4------------------4-7-4---4-----------------------|
|-000000-3-6-------6---6-3-6-000000-3-6-------6---6-3-6-----------------|
| ......                     ......                                     |
|                                                                       |
|-----------------------------------------------------------------------|
|-----------------------------------------------------------------------|
|-----------------------------------------------------------------------|
|-------------8-11-8----8---------------------8-11-8----8---------------|
|--------7-10--------10---10-7-10--------7-10--------10---10-7-10-------|
|-000000--------------------------000000--------------------------------|
| ......                          ......


|----------------------------------------------------------------------------|
|----------------------------------------------------------------------------|
|----------------------------------------------------------------------------|
|----------------------------------------------8-11-8----8-------------------|
|------------4-7-4---4-------7-10-7---7---7-10--------10---10-7-10-----------|
|-000000-3-6-------6---6-6-9--------9---9------------------------------------|
| ......                                                                     |
|                                                                            |
|----------------------------------------------------------------------------|
|-----------------------------------------------------11-14-11----11---------|
|---------------------------------9-12-9----9----9-12----------12----12-9-12-|
|-------------8-11-8----8----8-11--------11---11-----------------------------|
|--------7-10--------10---10-------------------------------------------------|
|-000000---------------------------------------------------------------------|
  ......

When going into RIFF F play:
|----------------------------------------------------------------------------|
|----------------------------------------------------------------------------|
|----------------------------------------------------------------------------|
|----------------------------------------------8-11-8------------------------|
|------------4-7-4---4-------7-10-7---7---7-10--------10-9~------------------|
|-000000-3-6-------6---6-6-9--------9---9------------------------------------|
| ......                                                                     |
|                                                                            |
|----------------------------------------------------------------------------|
|-----------------------------------------------------11-14-11---------------|
|---------------------------------9-12-9----9----9-12----------12-11~--------|
|-------------8-11-8----8----8-11--------11---11-----------------------------|
|--------7-10--------10---10-------------------------------------------------|
|-000000---------------------------------------------------------------------|
  ......


RIFF F

|-----------------------------------------------------|
|-----------------------------------------------------|
|-----------------------------------------------------|
|-----------------------------------------------------|
|-4-5-4-----2-------1-------2-------5-------4---------|
|-2-3-2-222---3-2-3---3-2-3---3-2-3---3-2-3---3-2-3---|
    .   ...

|-----------------------------------------------------|
|-----------------------------------------------------|
|-----------------------------------------------------|
|--------4--------------------------------------------|
|-4-5-4--2--------------------------3-----------------|
|-2-3-2--2--1-1-1-1-4-4-4-4-1-1-1-1-1-----------------|
    .       . . . . . . . . . . . .

|-----------------------------------------------------|
|-----------------------------------------------------|
|-----------------------------------------------------|
|-----------------------------------------------------|
|-4-5-4-----2-------1-------2-------5-------4---------|
|-2-3-2-222---3-2-3---3-2-3---3-2-3---3-2-3---3-2-3---|
    .   ...

|-----------------------------------------------------|
|-----------------------------------------------------|
|-----------------------------------------------------|
|--------4-5------------------------------------------|
|-4-5-4--2-3------------------------------------------|
|-2-3-2--2-3------------------------------------------|



Just work out the order yourselves. Should be easy enough.

  Visit MetalTabs.com for more metal tablature

bottom separator

Contact Us | Privacy Policy | Disclaimer | Legal Notice
Copyright © 2001-2014 MetalTabs.com. All Rights Reserved.