top separator

Home

Forum

What's New

Submit a Tab

FAQ

Links

Contact Us

Link to Us

MetalTabs.com logo

Bands

0-9

A

B

C

D

E

F

G

H

I

J

K

L

M

N

O

P

Q

R

S

T

U

V

W

X

Y

Z

Search

What

Where
 

Battlelore - "Journey to Undying Lands" Guitar Tab

Plain Text Version
More Battlelore Tabs

Hits: 3181
Rated: 4.25 out of 5 (4 votes)
Updated: 2005-08-17 15:45:39

 

By:

Theoldman

sendpm.gif

email.gif

Important note
This tab is available online because we obtained explicit permission from Battlelore or their label.


#----------------------------------PLEASE NOTE---------------------------------#
#This file is the author's own work and represents their interpretation of the #
#song. You may only use this file for private study, scholarship, or research. #
#Unless specified otherwise, this is NOT an official tab from the band members.#
#------------------------------------------------------------------------------#

  Visit MetalTabs.com for more metal tablature
  
Band:  Battlelore
Album: ...Where the Shadows Lie
Song:  Journey To Undying Lands

Copyright (c)  Napalm Records 2002
Version 1.0 -  22.7.2005

Transcribed By: theoldman
Email:          swordbearing@hotmail.com
________________________________________

.  - palm mute           /  - slide up to
\  - slide down to       ~  - vibrato
h  - hammer on           b  - Bend
p  - pull off            Suffixes for bend
t  - tap                 f  - full bend    h - half bend
ph - pinched harmonic    q  - quarter bend t - tap bend
*  - see comment         ^  - Hold bend    r release bend
x  - Stuccatto           ~  - vibrato bend
,  - slight palm mute    () - ghost note, sustained note
"  - tremolo note        <> - Trill

Tuning B E A D G B

Riff 1 (0:02-0:24)
|--------------------------------|--------------------------------|
|--------------------------------|--------------------------------|
|--------------------------------|--------------------------------|
|--------------------------------|--------------------------------|
|------------3-2-----------------|--------------------------------|
|5--5555--55-----3--33-1--11-5-5-|5--5555--55-3-5-3--33-1--11-5-5-|
 .  ....  .. . . .  .. .  .. . .  .  ....  .. . . .  .. .  .. . .



Riff 2 (0:14), (0:19)
|--------------------|
|--------------------|
|--------------------|
|--------------------|
|7-------------------|
|5-------------------|



Riff 3 (0:25-1:09)
|--------------------------------|--------------------------------|
|--------------------------------|--------------------------------|
|--------------------------------|--------------------------------|
|------------5-4-----------------|--------------------------------|
|7--7777--77-3-2-5--55-3--33-2-2-|7--7777--77-5-7-5--55-3--33-2-2-|
|5--5555--55-----3--33-1--11-0-0-|5--5555--55-3-5-3--33-1--11-0-0-|



Riff 4 (1:10-1:54)
|-----------------------------------|
|-----------------------------------|
|-----------------------------------|
|----------------5--55/77--77-5\4---|
|7--7777--77-5-5-3--33/55--55-3\2-5-|
|5--5555--55-3-3------------------3-|

|-----------------------------------|
|-----------------------------------|
|-----------------------------5\4---|
|----------------5--55/77--77-3\2-5-|
|7--7777--77-5-5-3--33/55--55-----3-|
|5--5555--55-3-3--------------------|



Riff 3 (1:55-2:17)



Riff 5 (2:18-2:39)
|----------------|----------------|
|----------------|----------------|
|----------------|----------------|
|----------------|----------------|
|7--7877--77-8---|7--7877--77---9-|
|5--5655--55-6---|5--5655--55-887-|
                              ..
|----------------|-----------------|
|----------------|-----------------|
|----------------|-----------------|
|----------------|-----------------|
|7--7877--77-8---|7--7877--77---10-|
|5--5655--55-6---|5--5655--55-558--|
                              ..



Riff 2 (2:40)



Riff 6 (3:03-3:24)
|----------------|
|----------------|
|----------------|
|----------------|
|----7---7---7---|
|55555-555-555---|
 ....  ... ..



Riff 7 (3:25-3:46)
|--------------------|--------------------|
|--------------------|--------------------|
|--------------------|--------------------|
|-----------------5--|--------------------|
|2---2--2-----2-5-3--|2---2--2-----2-5-3--|
|0-000-00--00-0-3----|0-000-00--00-0-3-1--|
   ..  .   ..           ..  .   ..
|--------------------|-----------------|
|--------------------|-----------------|
|--------------------|-----------------|
|-----------------5--|-----------------|
|2---2--2-----2-5-3--|2---2----5---3---|
|0-000-00--00-0-3----|0-000-00-3---1---|
   ..  .   ..           ..  ..



Riff 6 (3:47-4:10)

Riff 5 (4:33-4:55)

Riff 3 (4:56-5:40)

Riff 2 (5:41)



END

  Visit MetalTabs.com for more metal tablature

bottom separator

Contact Us | Privacy Policy | Disclaimer | Legal Notice
Copyright © 2001-2014 MetalTabs.com. All Rights Reserved.