#----------------------------------PLEASE NOTE---------------------------------#
#This file is the author's own work and represents their interpretation of the #
#song. You may only use this file for private study, scholarship, or research. #
#Unless specified otherwise, this is NOT an official tab from the band members.#
#------------------------------------------------------------------------------#

  Visit MetalTabs.com for more metal tablature
  
Band: Akercocke
Album: Rape Of The Bastard Nazarene
Song: Zuleika
Tuning: C F A# D# G C
Record Label: GOATOFMENDES

You will have to listen carefully to get all the correct rythms.

-------------------------
-------------------------
-------------------------
-------------------------
-3-5-6-2-3-5---22-22-22--
-1-3-4-0-1-3---00-00-00--
               pm .. ..

------------------------------------------------
------------------------------------------------
------------------------------------------------
------------------------------------------------
-----------------------------------3-5-6-2-3-5--
-11113344111133440000113300001133--1-3-4-0-1-3--
 pm..............................
 trem............................

---------------------------------------------------
---------------------------------------------------
---------------------------------------------------
-------3-2-----------------------3-2---------------
---4-3-----2-1-33332222------4-3-----2-1-33332222--
-5-------------11110000--5-4-------------11110000--X3
do not repeat this part.

-----------------------------------
-----------------------------------
-----------------------------------
-----------------------------------
-----------------------------------
-11113344111133440000113300001133--X2
 pm..............................
 trem............................

-----------------------
-----------------------
-----------------------
-----------------------
----8----8----8-3-2-3--
-00-6-00-6-00-6-1-0-1--X4
 pm   ..   ..

----------------------------------------------------
----------------------------------------------------
----------------------------------------------------
----------------------------------------------------
-------------------------------------------3-3-3-2--
-00-6-00-6-00-6-1-0-1--(x3)-00-6-00-6-00-6-1-1-1-0--
 pm..................        ..............
 trem................        ..............

--------------------------------------------------------
--------------------------------------------------nh----
--------------------------------------------------5-----
--------------------------------------------------------
-2-2222-3-2222-2-2222--------2-2222-3-2222-2-2222---4-3-
-0-0000-1-0000-0-0000-878787-0-0000-1-0000-0-0000---2-1-
   pm..   ....   .... ......   ....   ....   ....

--------------------------------------------------------
--------------------------------------------------------
--------------------------------------------------------
--------------------------------------------------3-----
-2-2222-3-2222-2-2222--------2-2222-3-2222-2-2222-1-4-3-
-0-0000-1-0000-0-0000-878787-0-0000-1-0000-0-0000---2-1-X4
   pm..   ....   .... ......   ....   ....   ....

--------------------
--------------------
--------------------
-3-4-------3-4------
-1-2-3-4-2-1-2-3-2--
-----1-2-0-----1-0--X4

--------------------
--------------------
--------------------
-3-4-------3-4------
-1-2-3-4-2-1-2-3-2--
-----1-2-0-----1-0--X2

---------------------------------
---------------------------------
---------------------------------
---3-------------------------10--
-2-1-121-1h0p1h0-------2-6-5--8--
-0---------------212---0-7-6-----X2

---------------------------------
---------------------------------
---------------------------------
-----------------------------10--
---1-121-1h0p1h0-------2-6-5--8--
-0---------------212---0-7-6-----
 PM.............................
 trem...........................

-----------------------------
-----------------------------
-----------------------------
-----------------------------
-2-2--2-5-5--5-3-3--3-6-6--6-
-0-0--0-3-3--3-1-1--1-4-4--4-X2

--------------------------------------------
--------------------------------------------
--------------------------------------------
--------------------------------------------
--------------------------------------------
-00000000003333333333311111111114444444444--X3
 trem......................................
 pm........................................

-----------------------------------
-----------------------------------
-----------------------------------
-----------------------------------
-----------------------------------
-5555441111111111-4444330000000000-X4
 trem.............................
 pm...............................

----------------------------------------
----------------------------------------
----------------------------------------
----------------------------------------
---1111--1111--1111--1111-----1-1-1-1-1-
-00----00----00----00----000---0-0-0-0--
 trem..................................

-------------------------------------------------
-------------------------------------------------
---------------------ph--------------------------
---------------------3^--------------------------
-----3-2---------3-2---------3-2---------3-2-----
-0-1-----1-4-0-1---------0-1-----1-4-0-1-----1^--
 trem...............     ...................

------------------
------------------
------------------
------------------
---6--------------
-4---5-1-4-0-4-6--X2
 pm.............
 trem...........

-------------------------------------------------
-------------------------------------------------
---------------------ph--------------------------
---------------------3^--------------------------
-----3-2---------3-2---------3-2---------3-2-----
-0-1-----1-4-0-1---------0-1-----1-4-0-1-----1^--
 trem...............     ...................

this riff is played over the solo
-----------------------
-----------------------
-----------------------
-----------------------
----8----8----8-3-2-3--
-00-6-00-6-00-6-1-0-1--X4
 pm   ..   ..

-------------------------
-------------------------
-------------------------
-------------------------
---3-7---3-7---2-6---2-6-
-0-----0-----0-----0-----X4
trem...................

-------------------------------------------------------------------
-------------------------------------------------------------------
-------------------------------------------------------------------
-------------------------------------------------------------------
----------------------------------2-3-5-2-3-5-2-5-2-3-4-2-3-4-2-4--
-0-4-6-0-4-6-0-6-0-5-7-0-5-7-0-7--0-1-3-0-1-3-0-3-0-1-2-0-1-2-0-2--X3
 pm...............................................................
 trem...........................

Thats all for this song
some bits were a little hard to hear so any corrections or anything
mail them to septic_flesh241@hotmail.com

  Visit MetalTabs.com for more metal tablature