top separator

Home

Forum

What's New

Submit a Tab

FAQ

Links

Contact Us

Link to Us

MuSpy.com

MetalTabs.com logo

Bands

0-9

A

B

C

D

E

F

G

H

I

J

K

L

M

N

O

P

Q

R

S

T

U

V

W

X

Y

Z

Search

What

Where
 

Godless Truth - "Embraced To Void" Guitar Tab

Plain Text Version
More Godless Truth Tabs

Hits: 2415
Updated: 2005-08-09 17:22:37

 

By:

Yura

sendpm.gif

email.gif

Important note
This tab is available online because we obtained explicit permission from Godless Truth or their label.


#----------------------------------PLEASE NOTE---------------------------------#
#This file is the author's own work and represents their interpretation of the #
#song. You may only use this file for private study, scholarship, or research. #
#Unless specified otherwise, this is NOT an official tab from the band members.#
#------------------------------------------------------------------------------#

  Visit MetalTabs.com for more metal tablature
  
--- GODLESS TRUTH  ---
                            "Embraced To Void"
                     From album: "Arrogance Of Supreme Power"
                     Copyright Lascerated Enemy Records 2004 
                     Transcribed by: Yura Kowalchuk
                     Contact:[yura_kowalchuk@mail.ru]
                             [yura@grindcore.net]
                    http://www.blood-scrapes.nm.ru
                    http://brutaltabs.musica.mustdie.ru

                            TABULATURE LEGEND:
                   " - tremolo             h - hammer on
                   ~ - vibrato             \ - slide down
                   p - pull off            / - slide down
                  tr - trill               ^ - pinch harmonics
                   = - sustained note      b - bend string
                p.m. - palm muting         t - tapping
                           <> - natural harmonic



TUNING: C [C, F, Bb, eb, g, c]

[Intro]
|--------------------------------------------------------------|
|--------------------------------------------------------------|
|------4--5------------4--5-------------4--5-----------1-4-3-2-|
|-2-1-------2--3--2-1-------2--3--2-1--------2--3--2-1---------|
|                                                              |
|--------------------------------------------------------------|
|--------------------------------------------------------------|
|--------------------------------------------------------------|
|--------------------------------------------------------------|
|-----------------4-3------------------------------------------|
|-----------------2-1------------------------------------------|
|                 . .                                          |
|--------------------------------------------------------------|
|--------------------------------------------------------------|
|--------------------------------------------------------------|
|--------------------------------------------------------------|
|---------------------------------4-3--------------4-3-1-4-3-2-|
|---------------------------------2-1--------------2-1---------|
                                  . .              . . . . . .

|--------------------------------------------------------------|
|--------------------------------------------------------------|
|------4--5------------4--5-------------4--5-----------1-4-3-2-|
|-2-1-------2--3--2-1-------2--3--2-1--------2--3--2-1---------|
|                                                              |
|--------------------------------------------------------------|
|--------------------------------------------------------------|
|--------------------------------------------------------------|
|------6--7----------------------------------------------------|
|-4-3--4--5-4--^---------------------------------------1-4-3-2-|
|-2-1-------2--3~----------------------------------2-1---------|
|                                                              |
|--------------------------------------------------------------|
|--------------------------------------------------------------|
|--------------------------------------------------------------|
|----------------------6--7------------------------------------|
|-----------------4-3--4--5--4--^-4-3--------------4-3-1-4-3-2-|
|-----------------2-1--------2--3~2-1--------------2-1---------|
                                  . .              . . . . . .

[Riff 1 (x2)]
||------------------------------------||
||o----------------------------------o||
||------------------------------------||
||-------6-7--------------------------||
||o-4-3--4-5-4--^-------4-3--1-4-3-2-o||
||--2-1------2--3~-[x3]-2-1-----------||
                        . .  . . . .

[Riff 2 (x4)]
||---------------------------------|---------------------------------||
||o--------------------------------|--------------------------------o||
||---------------------------------|---------------------------------||
||--------------6----4-3-----------|-------------6----------6-5-7-6--||
||o-8-7-6-5-6-5-4--------4---4-3---|-8-7-6-5-6-5-4--4-3-6-7-4-3-5-4-o||
||--6-5-4-3-4-3----3-------3-----3-|-6-5-4-3-4-3----2-1-4-5----------||
    . . . . . .    . . . . . . . .   . . . . . .    . . . . . . . .

[Outro 1]
|----------------------------------|----------------------------------|
|----------------------------------|----------------------------------|
|----------------------------------|----------------------------------|
|-----------------7----5--4------8-|-----------------7----5--4------8-|
|-6-7-6-5-9--8--7-5-6--3--2--8-9-6-|-6-7-6-5-9--8--7-5-6--3--2--8-9-6-|
|-4-5-4-3-7--6--5---4--------6-7---|-4-5-4-3-7--6--5---4--------6-7---|
| . . . . .  .  . . .  .  .  . .   | . . . . .  .  . . .  .  .  . .   |
|----------------------------------|----------------------------------|
|----------------------------------|----------------------------------|
|----------------------------------|----------------------------------|
|----------------------------------|-----------------7----5--4------8-|
|----------------------------------|-6-7-6-5-9--8--7-5-6--3--2--8-9-6-|
|----------------------------------|-4-5-4-3-7--6--5---4--------6-7---|
                                     . . . . .  .  . . .  .  .  . .

[Riff 3a (x4)]
||-------------------------------------||
||o-----------------------------------o||
||-------------------------------------||
||------------------7----5--4------8---||
||o-6-7-6-5-9--8--7-5-6--3--2--8-9-6--o||
||--4-5-4-3-7--6--5---4--------6-7-----||
    . . . . .  .  . . .  .  .  . .

[Riff 3b (x2)]
||---------------------------------------||
||o-------------------------------------o||
||----------------------------------<5>--||
||------------------7---5--4-----<5>-----||
||o-6-7-6-5-9--8--7-5-6-3--2--<5>-------o||
||--4-5-4-3-7--6--5---4------------------||
|   . . . .                               |
||---------------------------------------||
||o-------------------------------------o||
||----------------------------------<5>--||
||------------------7---5--4-----<5>-----||
||o-6-7-6-5-9--8--7-5-6-3--2--<5>-------o||
||--4-5-4-3-7--6--5---4------------------||
    . . . .

[Riff 3c]
||-------------------------------------||
||o-----------------------------------o||
||-------------------------------------||
||------------------7----5--4------8---||
||o-6-7-6-5-9--8--7-5-6--3--2--8-9-6--o||
||--4-5-4-3-7--6--5---4--------6-7-----||
|   . . . .                             |
||-------------------------------------||
||o-----------------------------------o||
||-------------------------------------||
||------------------4----2--1------5---||
||o-6-7-6-5-6--5--4-5-3--3--2--5-6-6--o||
||--4-5-4-3-7--6--5---4--------6-7-----||
    . . . .

[Riff 4 (x4)]
||-----------------------------------|----------------------------------||
||o----------------------------------|---------------------------------o||
||-----------------------------------|----------------------------------||
||-----------------------------------|----------------------------------||
||o---8----------9----8--------------|---8----------9--8-7-9-8-5-6-3-4-o||
||--6---10-9-8-8-7--6---10-9-8-8-7h8-|-6---10-9-8-8-7--6-5-7-6-3-4-1-2--||
    . . .  . . .    . . .  . . .       . . .  . . .    . . . . . . . .

[Outro 2]
|--------------------------|-------------------------|
|--------------------------|-------------------------|
|--------------------------|-----------------6-------|
|-----7/9-----7/9-9\8-9/11-|-----7/9-------7---7-----|
|-6-5-5/7-6-5-5/7-7\6-7/9--|-6-5-5/7-6-5-8-------8-6-|
|-4-3-----4-3--------------|-4-3-----4-3-------------|
| . .     . .              | . .     . . . . . . . . |
|--------------------------|-------------------------|
|--------------------------|-------------------------|
|--------------------------|-----------------6-------|
|--------------------------|---------------7---7-----|
|-6-5-----6-5--------------|-6-5-----6-5-8-------8-6-|
|-4-3-----4-3--------------|-4-3-----4-3-------------|
  . .     . .                . .     . . . . . . . .

[Riff 5 (x4)]
|--------------------------|-------------------------|
|--------------------------|-------------------------|
|--------------------------|-----------------6-------|
|-----7/9-----7/9-9\8-9/11-|-----7/9-------7---7-----|
|-6-5-5/7-6-5-5/7-7\6-7/9--|-6-5-5/7-6-5-8-------8-6-|
|-4-3-----4-3--------------|-4-3-----4-3-------------|
  . .     . .                . .     . . . . . . . .

[Riff 6 (x4)]            [Outro 3]
||-------------------||-|---------------------------------|-
||o-----------------o||-|---------------------------------|-
||-------------------||-|---------------------------------|-
||----------6-5-7-6--||-|---------------------------3/4\3-|-
||o-4-3-6-7-4-3-5-4-o||-|-------5\4-----------------1/2\1-|-
||--2-1-4-5----------||-|-0-0-0-3\2-0-0-0-0-0-0-0-0-------|-
|   . . . . . . . .   | | . . .     . . . . . . . .       |
||-------------------||-|---------------------------------|-
||o-----------------o||-|---------------------------------|-
||-------------------||-|---------------------------------|-
||----------6-5-7-6--||-|---------------------------------|-
||o-4-3-6-7-4-3-5-4-o||-|-2-------------------------------|-
||--2-1-4-5----------||-|-0-------------------------------|-
    . . . . . . . .

-|---------------------------------|
-|---------------------------------|
-|---------------------------------|
-|---------------------------------|
-|-------5\4-------444-555-777-555-|
-|-0-0-0-3\2-0-0-0-222-333-555-333-|
 | . . .     . . . ... ... ... ... |
-|---------------------------------|
-|---------------------------------|
-|---------------------------------|
-|---------------------------------|
-|-----------------444-555-777-555-|
-|-----------------222-333-555-333-|
                   ... ... ... ...

[Riff 7 (x4)]
||----------------------------------|----------------------------------||
||o---------------------------------|---------------------------------o||
||----------------------------------|----------------------------------||
||----------------------------3/4\3-|----------------------------------||
||o-------5\4-----------------1/2\1-|-------5\4-------444-555-777-555-o||
||--0-0-0-3\2-0-0-0-0-0-0-0-0-------|-0-0-0-3\2-0-0-0-222-333-555-333--||
    . . .     . . . . . . . .         . . .     . . . ... ... ... ...

[RIFF 5 (x2)] [RIFF 6 (x4)] [RIFF 3a (x4)] [RIFF 3b (x2)] [RIFF 3c (x2)]


[Riff 8 (x8)] /fade out..................
||--------------------------------------------||
||o------------------------------------------o||
||--------------8"...-------------------------||
||--6"...-------------5"-6"-4===-----3=====---||
||o-------7"...-------------4===-----3=====--o||
||--------------------------2===-444-1=====---||
                                 ...

END OF SONG

  Visit MetalTabs.com for more metal tablature

bottom separator

Contact Us | Privacy Policy | Disclaimer | Legal Notice
Copyright © 2001-2014 MetalTabs.com. All Rights Reserved.