top separator

Home

Forum

What's New

Submit a Tab

FAQ

Links

Contact Us

Link to Us

MuSpy.com

MetalTabs.com logo

Bands

0-9

A

B

C

D

E

F

G

H

I

J

K

L

M

N

O

P

Q

R

S

T

U

V

W

X

Y

Z

Search

What

Where
 

Battlelore - "Khazad-Dm (Part II - Silent Caverns)" Guitar Tab

Plain Text Version
More Battlelore Tabs

Hits: 2513
Updated: 2005-08-09 17:10:39

 

By:

Theoldman

sendpm.gif

email.gif

Important note
This tab is available online because we obtained explicit permission from Battlelore or their label.


#----------------------------------PLEASE NOTE---------------------------------#
#This file is the author's own work and represents their interpretation of the #
#song. You may only use this file for private study, scholarship, or research. #
#Unless specified otherwise, this is NOT an official tab from the band members.#
#------------------------------------------------------------------------------#

  Visit MetalTabs.com for more metal tablature
  
Band:  Battlelore
Album: Sword's Song
Song:  Chazad-dum pt.2 (Silent Caverns)

Copyright (c)  Napalm Records 2003
Version 1.0 -  16.7.2005

Transcribed By: theoldman
Email:          swordbearing@hotmail.com
________________________________________

.  - palm mute           /  - slide up to
\  - slide down to       ~  - vibrato
h  - hammer on           b  - Bend
p  - pull off            Suffixes for bend
t  - tap                 f  - full bend    h - half bend
ph - pinched harmonic    q  - quarter bend t - tap bend
*  - see comment         ^  - Hold bend    r release bend
x  - Stuccatto           ~  - vibrato bend
,  - slight palm mute    () - ghost note, sustained note
"  - tremolo note        <> - Trill

Tuning B E A D G B

Riff 1 (0:00-0:35)
|---------------------------------------------------|
|---------------------------------------------------|
|---------------------------------------------------|
|7----------------10---9----7----------------3----5-|
|5----------------8----7----5----------------1----3-|
|---------------------------------------------------|



Riff 1 (0:57-1:14)



Riff 2 (1:15-1:36)
|------------------------------------------------------------|
|------------------------------------------------------------|
|------2-2-2-------------------2-2-2-------------3-3-3-2-2-2-|
|0-0-0-------3-3-3-2-2-2-0-0-0-------------3-3-3-------------|
|------------------------------------1-1-1-------------------|
|------------------------------------------------------------|

|------------------------------------------------------------|
|------------------------------------------------------------|
|------2-2-2-------------------2-2-2-------------3-3-3-5-5-7-|
|0-0-0-------3-3-3-2-2-2-0-0-0-------------3-3-3-------------|
|------------------------------------1-1-1-------------------|
|------------------------------------------------------------|



Riff 3 (1:37-2:11)
|------------------------------------------------|
|------------------------------------------------|
|------------------------------------------------|
|------------5-5-5-4-4-4-------------------------|
|2-2-2-2-2-2-3-3-3-2-2-2-2-2-2-2-2-2-5-5-5-4-4-4-|
|0-0-0-0-0-0-------------0-0-0-0-0-0-3-3-3-2-2-2-|

|------------------------------------------------|
|------------------------------------------------|
|------------------------------------------------|
|------------5-5-5-4-4-4-------------------------|
|2-2-2-2-2-2-3-3-3-2-2-2-2-2-2-2-2-2-2-----------|
|0-0-0-0-0-0-------------0-0-0-0-0-0-0---0-0-0-0-|
                                     .   . . . .


Riff 4 (2:12-2:29)
|------------------------------------------------|
|------------------------------------------------|
|--------------------------------------7-7-7-7-7-|
|--------------9-9-9-9-9-5-----5-5-5-5-5-5-5-5-5-|
|7-----7-7-7-7-7-7-7-7-7-3-3-3-3-3-3-3-----------|
|5-5-5-5-5-5-5-----------------------------------|
   . .                     . .
|------------------------------------------------|
|------------------------------------------------|
|------------------------------------------------|
|--------------9-9-9-9-9-5-----5-5-5-5-7-7-7-7-7-|
|7-----7-7-7-7-7-7-7-7-7-3-3-3-3-3-3-3-5-5-5-5-5-|
|5-5-5-5-5-5-5-----------------------------------|
   . .                     . .



Riff 5 (2:30-2:46)
|------------------------------------------------|
|------------------------------------------------|
|------------------------------------------------|
|------------------------3-3-3-3-3-3-3-3-3-5-5-5-|
|------------------------------------------------|
|5-5-5-5-5-5-5-5-5-5-5-5-------------------------|
 . . . . . . . . . . . . . . . . . . . . . . . .
|------------------------------------------------|
|------------------------------------------------|
|------------------------------------------------|
|------------------------3-3-3-3-3-3-5-----------|
|--------------------------------------5-5-5-5-5-|
|5-5-5-5-5-5-5-5-5-5-5-5-------------------------|
 . . . . . . . . . . . . . . . . . . . . . . . .



Riff 6 (2:47-3:22)
|------------------------------------------------|
|------------------------------------------------|
|------------------------5-5-5-5-5-5-5-5-5-7-7-7-|
|------------------------3-3-3-3-3-3-3-3-3-5-5-5-|
|7-7-7-7-7-7-7-7-7-7-7-7-------------------------|
|5-5-5-5-5-5-5-5-5-5-5-5-------------------------|

|------------------------------------------------|
|------------------------------------------------|
|------------------------5-5-5-5-5-5-7-----------|
|------------------------3-3-3-3-3-3-5-7-7-7-7-7-|
|7-7-7-7-7-7-7-7-7-7-7-7---------------5-5-5-5-5-|
|5-5-5-5-5-5-5-5-5-5-5-5-------------------------|



Riff 7 (3:31-3:57)
|------------------------------------------------|
|------------------------------------------------|
|------------------------------------------------|
|------------5-5-5-4-4-4-------------------------|
|2-2-2-2-2-2-3-3-3-2-2-2-2-2-2-2-2-2-5-5-5-4-4-4-|
|0-0-0-0-0-0-------------0-0-0-0-0-0-3-3-3-2-2-2-|

|------------------------------------------------|
|------------------------------------------------|
|------------------------------------------------|
|------------5-5-5-4-4-4-------------------------|
|2-2-2-2-2-2-3-3-3-2-2-2-2-2-2-2-2-2-3-3-3-3-3-3-|
|0-0-0-0-0-0-------------0-0-0-0-0-0-1-1-1-1-1-1-|



End (3:58)
|---------------|
|---------------|
|---------------|
|---------------|
|2--------------|
|0--------------|



END

  Visit MetalTabs.com for more metal tablature

bottom separator

Contact Us | Privacy Policy | Disclaimer | Legal Notice
Copyright © 2001-2014 MetalTabs.com. All Rights Reserved.