top separator

Home

Forum

What's New

Submit a Tab

FAQ

Links

Contact Us

Link to Us

MuSpy.com

MetalTabs.com logo

Bands

0-9

A

B

C

D

E

F

G

H

I

J

K

L

M

N

O

P

Q

R

S

T

U

V

W

X

Y

Z

Search

What

Where
 

Callenish Circle - "Obey Me" Guitar Tab

Plain Text Version
More Callenish Circle Tabs

Hits: 3988
Rated: 3.00 out of 5 (1 vote)
Updated: 2005-08-09 17:03:52

 

By:

sendpm.gif

email.gif

Important note
This tab is available online because we obtained explicit permission from Callenish Circle or their label.


#----------------------------------PLEASE NOTE---------------------------------#
#This file is the author's own work and represents their interpretation of the #
#song. You may only use this file for private study, scholarship, or research. #
#Unless specified otherwise, this is NOT an official tab from the band members.#
#------------------------------------------------------------------------------#

  Visit MetalTabs.com for more metal tablature
  
Band:  Callenish Circle
Album: Flesh Power Dominion

Song:  Obey me

Copyright (c)  (RECORD LABEL) 2005
Version 1.0 - (13-07-05)

Transcribed By: David Trillo
Email:          Trillo_bcn@hotmail.com


.  - palm mute           /  - slide up to
\  - slide down to       ~  - vibrato
h  - hammer on           b  - Bend
p  - pull off            Suffixes for bend
t  - tap                 f  - full bend    h - half bend
ph - pinched harmonic    q  - quarter bend t - tap bend
*  - see comment         ^  - Hold bend    r release bend
x  - Stuccatto           ~  - vibrato bend
,  - slight palm mute    () - ghost note, sustained note
"  - tremolo note        <> - Trill

Tuning E A D G B E


Flesh...Power...Dominion...

 Gtr 1                                             X3
|----------------------------------------------------|
|----------------------------------------------------|
|----------10-10-10-9-7----------------10-9----------|
|---77777-7-------------10------------------10-------|
|--------------------------888-8-8-8-10--------------|
|----------------------------------------------------|

Gtr 2
|---------|
|---------|
|---------|
|--7-3-5--|
|--7-3-5--|
|--5-1-3--| take the rythm by listening to the song

Gtr 1
|-----------------------------------12-10-8---------------------------------|
|-------------------------------------------12-10-8-------------------------|
|----------10-10-10-9-7-----------------------------10-9-7------------------|
|---77777-7-------------10-----------------------------------10-9----7~-3~-|
|--------------------------888-8-8-8------------------------------10--------|
|---------------------------------------------------------------------------|

Gtr 2
|------------------------------------------------------------------------------|
|------------------------------------------------------------------------------|
|------------------------------------------------------------------------------|
|---7----------------------3----------5-------------------------------------Ax-|
|---7----------------------3----------5----------------------------------3~-Ex-|
|---5----------------------1----------3-------------------------------5~----Ax-|
   take the rythm by listening to the song                                 x5





|--------------------------------------------------------------------------| \
|--------------------------------------------------------------------------| |
|--------------------------------------------------------------------------| |
|--------------------------------------------------------------------------| |
|-5h7---8---7---5---7-8---10h8---7---8---10-8h7-8h7-5h7---8---7---5---7-8-| |
|-----0---0---0---0-----0------0---0---0-----------------0---0---0---0-----| |
                                                                             >x3
|------------------------------------|                                       |
|------------------------------------|                                       |
|------------------------------------|                                       |
|------------------------------------|                                       |
|---10h8---7---8---5h7---3h5---------|                                       |
|-0------0---0---0-----0-----0-0-----|                                       /




Gtr 1
|-------------------------------------------------------------|
|-------------------------------------------------------------|
|-------------3---2-----3---5----------------3---2------------|
|--5----------3---2-----3---5----5-----------3---2--------3---|
|--5----------1---0-----1---3----5-----------1---0--------3---|
|--3-----------------------------3------------------------1---|

Gtr 2
|-------------------------------------------------------------------|
|-------------------------------------------------------------------|
|-12-11-----------------9-9/11---12-11------------------------------|
|-------9~---9-12-11--7----------------9~---9-12-117-7/5-5/4-4/5---|
|-------------------------------------------------------------------|
|-------------------------------------------------------------------|

Gtr 1
|-------------------------------------------------------------|
|-------------------------------------------------------------|
|-------------3---2-----3---5----------------3---2------------|
|--5----------3---2-----3---5----5-----------3---2--------3---|
|--5----------1---0-----1---3----5-----------1---0--------3---|
|--3-----------------------------3------------------------1---|

Gtr 2
|---------------------------------------------------------------|
|---------------------------------------------------------------|
|-12-11-----------------9-9/11---12-11----------11-9~-----------|
|-------9~---9-12-11--7----------------12~---12-----------------|
|---------------------------------------------------------------|
|---------------------------------------------------------------|





|--------------------------------------------------------------------------| \
|--------------------------------------------------------------------------| |
|--------------------------------------------------------------------------| |
|--------------------------------------------------------------------------| |
|-5h7---8---7---5---7-8---10h8---7---8---10-8h7-8h7-5h7---8---7---5---7-8-| |
|-----0---0---0---0-----0------0---0---0-----------------0---0---0---0-----| |
                                                                             >x3
|------------------------------------|                                       |
|------------------------------------|                                       |
|------------------------------------|                                       |
|------------------------------------|                                       |
|---10h8---7---8---5h7---3h5---------|                                       |
|-0------0---0---0-----0-----0-0-----|                                       /





Gtr 1
|-------------------------------------------------------------|
|-------------------------------------------------------------|
|-------------3---2-----3---5----------------3---2------------|
|--5----------3---2-----3---5----5-----------3---2--------3---|
|--5----------1---0-----1---3----5-----------1---0--------3---|
|--3-----------------------------3------------------------1---|

Gtr 2
|-------------------------------------------------------------------|
|-------------------------------------------------------------------|
|-12-11-----------------9-9/11---12-11------------------------------|
|-------9~---9-12-11--7----------------9~---9-12-117-7/5-5/4-4/5---|
|-------------------------------------------------------------------|
|-------------------------------------------------------------------|

Gtr 1
|-------------------------------------------------------------|
|-------------------------------------------------------------|
|-------------3---2-----3---5----------------3---2------------|
|--5----------3---2-----3---5----5-----------3---2--------3---|
|--5----------1---0-----1---3----5-----------1---0--------3---|
|--3-----------------------------3------------------------1---|

Gtr 2
|---------------------------------------------------------------|
|---------------------------------------------------------------|
|-12-11-----------------9-9/11---12-11----------11-9~-----------|
|-------9~---9-12-11--7----------------12~---12-----------------|
|---------------------------------------------------------------|
|---------------------------------------------------------------|




|--------------------------------------------------------------------------| \
|--------------------------------------------------------------------------| |
|--------------------------------------------------------------------------| |
|--------------------------------------------------------------------------| |
|-5h7---8---7---5---7-8---10h8---7---8---10-8h7-8h7-5h7---8---7---5---7-8-| |
|-----0---0---0---0-----0------0---0---0-----------------0---0---0---0-----| |
                                                                             >x3
|------------------------------------|                                       |
|------------------------------------|                                       |
|------------------------------------|                                       |
|------------------------------------|                                       |
|---10h8---7---8---5h7---3h5---------|                                       |
|-0------0---0---0-----0-----0-0-----|                                       /




Gtr 1
|--------------------------------------------------------------------------|
|--------------------------------------------------------------------------|
|--------------------------------------------------------------------------|
|--------------------------------------------------------------------------|
|-5h7---8---7---5---7-8---10h8---7---8---10-8h7-8h7-5h7---8---7---5---7-8-|
|-----0---0---0---0-----0------0---0---0-----------------0---0---0---0-----|

|------------------------------------|
|------------------------------------|
|------------------------------------|
|------------------------------------|
|---10h8---7---8---5h7---3h5---------|
|-0------0---0---0-----0-----0-0-----|


Gtr 2 (take the ryhm by listening to the song)
|------------------------------------------|
|------------------------------------------|
|------------------------------------------|
|---2--3--2------2--3---5---7--------------|
|---2--3--2------2--3---5---7--------------|
|---0--1--0------0--1---3---5--------------|



                                                x4
|--------------------------------------------------|
|--------------------------------------------------|
|--------------------------------------------------|
|----7---7/8---8---7/8------7---7/5---5---5/3------|
|----7---7/8---8---7/8------7---7/5---5---5/3------|
|-55-5---5/6-6-6-5-5/6---55-5---5/3-3-3-3-3/1------|
  ..         .   .       ..         .   .




Acoustic
|-----------------------------------------------------|
|-----------------------------------------------------|
|-----------------------------------------------------|
|--8-7-5-8-7-5-8-7-5-8-7-5-8-7---8-7---8-7---8-8/10--|
|-------------------------------8-----8-----8---------|
|-----------------------------------------------------|




Distorsion Gtr 1                                 x4
|--------------------------------------------------|
|--------------------------------------------------|
|--------------------------------------------------|
|-8-7-5-8-7-5-8-7-5-8-7-5--8-7---8-7---8-7--8/10---|
|------------------------------8-----8-------------|
|--------------------------------------------------|

Gtr 2
|--------------------------------------------------------------------------|
|--------------------------------------------------------------------------|
|--------------------------------------------------------------------------|
|-5---5---5----5----5--5---5---5----5----5--3---3---3----3----3--5---5---5-|
|-5---5---5----5----5--5---5---5----5----5--3---3---3----3----3--5---5---5-|
|-3-3-3-3-3-33-3-33-3--3-3-3-3-3-33-3-33-3--1-1-1-1-1-11-1-11-1--3-3-3-3-3-|
     .   .   ..   ..      .   .   ..   ..      .   .   ..   ..      .   .
             x4
---------------|
---------------|
---------------|
-8---8---8-----|
-8---8---8-----|
-6-6-6-6-6-----|
   .   .




Acoustic
|-----------------------------------------------------|
|-----------------------------------------------------|
|-----------------------------------------------------|
|--8-7-5-8-7-5-8-7-5-8-7-5-8-7---8-7---8-7---8-8/10--|
|-------------------------------8-----8-----8---------|
|-----------------------------------------------------|



Solo- ( Not yet...)


|--------------------------------------------------------------------------| \
|--------------------------------------------------------------------------| |
|--------------------------------------------------------------------------| |
|--------------------------------------------------------------------------| |
|-5h7---8---7---5---7-8---10h8---7---8---10-8h7-8h7-5h7---8---7---5---7-8-| |
|-----0---0---0---0-----0------0---0---0-----------------0---0---0---0-----| |
                                                                             >x3
|------------------------------------|                                       |
|------------------------------------|                                       |
|------------------------------------|                                       |
|------------------------------------|                                       |
|---10h8---7---8---5h7---3h5---------|                                       |
|-0------0---0---0-----0-----0-0-----|                                       /




Gtr 1
|--------------------------------------------------------------------------|
|--------------------------------------------------------------------------|
|--------------------------------------------------------------------------|
|--------------------------------------------------------------------------|
|-5h7---8---7---5---7-8---10h8---7---8---10-8h7-8h7-5h7---8---7---5---7-8-|
|-----0---0---0---0-----0------0---0---0-----------------0---0---0---0-----|

|------------------------------------|
|------------------------------------|
|------------------------------------|
|------------------------------------|
|---10h8---7---8---5h7---3h5---------|
|-0------0---0---0-----0-----0-0-----|


Gtr 2 (take the ryhm by listening to the song)
|------------------------------------------|
|------------------------------------------|
|------------------------------------------|
|---2--3--2------2--3---5---7--------------|
|---2--3--2------2--3---5---7--------------|
|---0--1--0------0--1---3---5--------------|





Gtr 1
|-------------------------------------------------------------|
|-------------------------------------------------------------|
|-------------3---2-----3---5----------------3---2------------|
|--5----------3---2-----3---5----5-----------3---2--------3---|
|--5----------1---0-----1---3----5-----------1---0--------3---|
|--3-----------------------------3------------------------1---|

Gtr 2
|-------------------------------------------------------------------|
|-------------------------------------------------------------------|
|-12-11-----------------9-9/11---12-11------------------------------|
|-------9~---9-12-11--7----------------9~---9-12-117-7/5-5/4-4/5---|
|-------------------------------------------------------------------|
|-------------------------------------------------------------------|

Gtr 1
|-------------------------------------------------------------|
|-------------------------------------------------------------|
|-------------3---2-----3---5----------------3---2------------|
|--5----------3---2-----3---5----5-----------3---2--------3---|
|--5----------1---0-----1---3----5-----------1---0--------3---|
|--3-----------------------------3------------------------1---|

Gtr 2
|---------------------------------------------------------------|
|---------------------------------------------------------------|
|-12-11-----------------9-9/11---12-11----------11-9~-----------|
|-------9~---9-12-11--7----------------12~---12-----------------|
|---------------------------------------------------------------|
|---------------------------------------------------------------|




                                                  x4
|--------------------------------------------------|
|--------------------------------------------------|
|--------------------------------------------------|
|----7---7/8---8---7/8------7---7/5---5---5/3------|
|----7---7/8---8---7/8------7---7/5---5---5/3------|
|-55-5---5/6-6-6-5-5/6---55-5---5/3-3-3-3-3/1------|





Gtr 1
|--------------------------------------------------|
|--------------------------------------------------|
|--------------------------------------------------|
|-8-7-5-8-7-5-8-7-5-8-7-5--8-7---8-7---8-7--8/10---|
|------------------------------8-----8-------------|
|--------------------------------------------------|

Gtr 2
|--------------------------------------------------------------------------|
|--------------------------------------------------------------------------|
|--------------------------------------------------------------------------|
|-5---5---5----5----5--5---5---5----5----5--3---3---3----3----3--5---5---5-|
|-5---5---5----5----5--5---5---5----5----5--3---3---3----3----3--5---5---5-|
|-3-3-3-3-3-33-3-33-3--3-3-3-3-3-33-3-33-3--1-1-1-1-1-11-1-11-1--3-3-3-3-3-|
    .   .   ..   ..      .   .   ..   ..      .   .   ..   ..      .   .

---------------|
---------------|
---------------|
-8---8---8-----|
-8---8---8-----|
-6-6-6-6-6-----|


For any sugesstion...trillo_bcn@hotmail.com

  Visit MetalTabs.com for more metal tablature

bottom separator

Contact Us | Privacy Policy | Disclaimer | Legal Notice
Copyright © 2001-2014 MetalTabs.com. All Rights Reserved.